Song name
# A B C D E F G H I J K L M N O P Q R S T U V W X Y Z

Guns N Roses - Knocking On Heavens Door tab

the tuning is Eb, Ab, Db, Gb, Bb,Eb
key= fb= full bend  h=Hammer on
     p= pull off
     v= vibrato
     hb= half bend
     s= slide
Solo 2
Eb------------------------12-15-14hb--------14v---14hb--14p12--------15--------|
Bb-------------13---13------------------------------------------15fb---15fb----|
Gb---------------12------------------------------------------------------------|
Db-----------------------------------------------------------------------------|
Ab-----------------------------------------------------------------------------|
Eb-----------------------------------------------------------------------------|

Eb---15-----------------------15------------------15---------------------------|
Bb------15fb---13--15-----------15-----------15v----15--15fb-15fb--------------|
Gb----------------------14fb-------14fb--12--14v-------14----14---12v----------|
Db-----------------------------------------------------------------------------|
Ab-----------------------------------------------------------------------------|
Eb-----------------------------------------------------------------------------|

Eb-------15---17fb-17hb-15-17--15-20-19-20-20fb-20-19-20-20fb--20-19-20-22fb-|
Bb-----15--15----------------------------------------------------------------|
Gb--s16----------------------------------------------------------------------|
Db---------------------------------------------------------------------------|
Ab---------------------------------------------------------------------------|
Eb---------------------------------------------------------------------------|

Eb-22fb--22--------22----------------------------------------15v--------------|
Bb----------20-22fb---22fb--20-22-22hb--20-22-20----19hb--------19v--19hb--17-|
Gb----------------------------------------------------------------------------|
Db----------------------------------------------------------------------------|
Ab----------------------------------------------------------------------------|
Eb----------------------------------------------------------------------------|

Eb--------------15-------15------------------------------------------------|
Bb---19p-17-17v----17-------17p--15-----15---------------------------------|
Gb-----------------------------------17-----16hb-16hb---12---11v---11hb-9--|v
Db-------------------------------------------------------------------------|
Ab-------------------------------------------------------------------------|
Eb-------------------------------------------------------------------------|

Eb-------------------------------------------------------------------------|
Bb-------------------------------------------------------------------------|
Gb--s7---5p-4--------------------------------------------------------------|
Db--------------5----------------------------------------------------------|
Ab-------------------------------------------------------------------------|
Eb-------------------------------------------------------------------------|


that's it, if anyone has any questions dont be afraid to ask, thanks!!!
the tuning for this it is one semi-tone down from standard.
Tap to rate this tab
# A B C D E F G H I J K L M N O P Q R S T U V W X Y Z