Guns N Roses - This I Love tab

-------------------------------------------------------------------------------
			     THIS I LOVE [solo] - Guns N' Roses
-------------------------------------------------------------------------------
Tabbed by: AdamDK	
Email: adamdickinson1993@gmail.com

Tuning: Eb (Eb Ab Db Gb Bb Eb)

NOTE: The solo has a mixture of full tone and half-tone bends. The tab would be
far too jammed of I included the pitch of the bends after the note, so listen to
the song to hear what bends are full tone and what bends half tone. Also, towards
the end of the solo (the part before Axl comes in to sing) it may be slightly
wrong, my ear isn't perfect. 

eb|15b~------------------------15b---15b--15-13---12b--12~--------12-15-------|
Bb|-------------------------------------------------------/15-----------------|
Gb|------------14b~---14br~---------------------------------------------------|
Db|---------------------------------------------------------------------------|
Ab|---------------------------------------------------------------------------|
Eb|---------------------------------------------------------------------------|

eb|17b--17brb--19br--17-15~--/15-17--------/12h13-----------------------------|
Bb|---------------------------------/15-13----------13b~---13-12-13--15brb----|
Gb|---------------------------------------------------------------------------|
Db|---------------------------------------------------------------------------|
Ab|---------------------------------------------------------------------------|
Eb|---------------------------------------------------------------------------|

eb|-------15b~-----/15--/13---12-13-------------------------------------------|
Bb|15pbr-----------/15--/13---------13b~-13-12--15b-15b-15~-15b--15pbr13-12---|
Gb|---------------------------------------------------------------------------|
Db|---------------------------------------------------------------------------|
Ab|---------------------------------------------------------------------------|
Eb|---------------------------------------------------------------------------|

eb|--------------------/15--------------------------19-19b--17h19---22brb--22~|
Bb|10-10~--/8/10--5~---/15----------20-22--22~--20---------------17~----------|
Gb|--------/7--------------19b~-/21-------------------------------------------|
Db|---------------------------------------------------------------------------|
Ab|---------------------------------------------------------------------------|
Eb|---------------------------------------------------------------------------|

eb|24b~-----17\--15\--13------------------------------------------------------|
Bb|---------17\--15\--13-/13-13-----------------------------------------------|
Gb|----------------------/12-12-12------12-17-16~--16p14-14h16--14h16p14-14\13|
Db|-----------------------------12--/14---------------------------------------|
Ab|---------------------------------------------------------------------------|
Eb|---------------------------------------------------------------------------|

eb|---------------------------------------------------------------------------|
Bb|---------------------------------/17~---18b~--18-15b~-15b-15-13--15/17\13~-|
Gb|/13-14-16-16br-14\12/14--16br-14-------------------------------------------|
Db|---------------------------------------------------------------------------|
Ab|---------------------------------------------------------------------------|
Eb|---------------------------------------------------------------------------|

eb|----------------------------------------17--------16pbr--------------------|
Bb|-----13-15b-15br--15br-13-12\8--15b-15b---15pbr----------15brb-13h15-------|
Gb|/14------------------------------------------------------------------------|
Db|---------------------------------------------------------------------------|
Ab|---------------------------------------------------------------------------|
Eb|---------------------------------------------------------------------------|

eb|---------------------------------------------------------------------------|
Bb|15p13-12-13/15-13----------12-13/15-13-12-10-------------------------------|
Gb|------------------14~--/14-------------------12b~--------------------------|
Db|---------------------------------------------------------------------------|
Ab|---------------------------------------------------------------------------|
Eb|---------------------------------------------------------------------------|


************************************

| /   slide up
| \   slide down
| h   hammer-on
| p   pull-off
| ~   vibrato
| +   harmonic
| x   Mute note
| b   Bend
| pb  Pre-bend
| br  Bend release
| pbr Pre-bend release
| brb Bend release bend

************************************
Tap to rate this tab
 
# A B C D E F G H I J K L M N O P Q R S T U V W X Y Z