Guns N Roses - Godfather Theme tab

                    Godfather Theme Solo
This Is From Solo Till End
Enjoy
Tabbed By bhishmyadav@gmail.com


--12--10--13-12-13s-15-13-15p-13-12-13-12-13p-12-10-12-|
-------------------------------------------------------|
-------------------------------------------------------|
-------------------------------------------------------|
-------------------------------------------------------|
-------------------------------------------------------|

--9-10-6-L-9p-6-----------------------------------------------10-13-12h-13p-12p-|
----------------8-10-10h-11p-10p-8-10h-11p-8-10h-11p-8h-10-10-------------------|
--------------------------------------------------------------------------------|
--------------------------------------------------------------------------------|
--------------------------------------------------------------------------------|
--------------------------------------------------------------------------------|


--12h-13p-12p-10p-x-12-13s-15---12h-13p-12-13-15b-L--(15)b--(15)br--L--13-10-|
-----------------------------------------------------------------------------|
-----------------------------------------------------------------------------|
-----------------------------------------------------------------------------|
-----------------------------------------------------------------------------|
-----------------------------------------------------------------------------|


--13s-15--15-15~-L-15-13h-15S-13g12-L-13-12-10b-L--(10)b--|
----------------------------------------------------------|
----------------------------------------------------------|
----------------------------------------------------------|
----------------------------------------------------------|
----------------------------------------------------------|


--(10)br--(10)p-8h-10-L-8b---6-5-8p-5h-6-8p-5h-6-6p-5-----------------------|
------------------------------------------------------8-6-8p-5h-6-5h-6------|
-----------------------------------------------------------------------7-6s-|
----------------------------------------------------------------------------|
----------------------------------------------------------------------------|
----------------------------------------------------------------------------|


----------------------------------------------------10-13-13b------15b--|
-----------------------------8-10h-11p-10p-8h-10-10---------------------|
--7h-9h-10-7h-9h-10-7h-9h-10--------------------------------------------|
------------------------------------------------------------------------|
------------------------------------------------------------------------|
------------------------------------------------------------------------|

--15br----L--13-15-15pbr--13-15-13-15p-12-----|-------------------------------|
-------------------------------------------14-|--15~-------15b~----L--13b~----|
----------------------------------------------|-------------------------------|
----------------------------------------------|-------------------------------|
----------------------------------------------|-------------------------------|
----------------------------------------------|-------------------------------|


----------------------------------|---------------13-------12-10~--L-10-9----|
--13~------15br------L--11-15p-11-|--10~----10-11----10-11----------------11-|
----------------------------------|------------------------------------------|
----------------------------------|------------------------------------------|
----------------------------------|------------------------------------------|
----------------------------------|------------------------------------------|


---------------------------8-----------|
--10-8-10-8----8-8~--6-8b----8pbr--6---|
------------10-----------------------7-|
---------------------------------------|
---------------------------------------|
---------------------------------------|

---------9--------9------------------------13-13----|
--10s-11---10s-11---10s-11-11s-13-15-13-15-------15-|
----------------------------------------------------|
----------------------------------------------------|
----------------------------------------------------|
----------------------------------------------------|


--17-15h-17p-15p-13----17-15h-17p-15p-13----17-15h-17p-15p-13----17-15h-17p-15p-|
--------------------15-------------------15-------------------15----------------|
--------------------------------------------------------------------------------|
--------------------------------------------------------------------------------|
--------------------------------------------------------------------------------|
--------------------------------------------------------------------------------|


----18b--L----18-17-18---17h-18p-17p-15-L-17-15-13-12-15-13-12-|
--L------------------------------------------------------------|
---------------------------------------------------------------|
---------------------------------------------------------------|
---------------------------------------------------------------|
---------------------------------------------------------------|


--15-13-12-15-13-12-10-13-12h-13p-12p-10-12-10p-9h-10-10p-9-10-9-----------------|
------------------------------------------------------------------11h-14p-11S-10-|
---------------------------------------------------------------------------------|
---------------------------------------------------------------------------------|
---------------------------------------------------------------------------------|
---------------------------------------------------------------------------------|

-----------------------------------20-|
-------------------------20b~----L----|
--12b--L-12~---(12)\------------------|
--------------------------------------|
--------------------------------------|
--------------------------------------|

---------------------------20--------------------|
--20pbr--18-15-20--18-20b-----20pbr--18-20-17-20-|
-------------------------------------------------|
-------------------------------------------------|
-------------------------------------------------|
-------------------------------------------------|

---------------------------------------------------------------------|
--18-20-17-18-15-17-13-15-13-15p-13S-11--L-13-11-13p-11S-10--L-8-10~-|
---------------------------------------------------------------------|
---------------------------------------------------------------------|
---------------------------------------------------------------------|
---------------------------------------------------------------------|


--------------------------------------------------|
--L----8-10p-8S-6-L-8-----------11-L-11p-10S-8-10-|
----------------------10-9-10-9-------------------|
--------------------------------------------------|
--------------------------------------------------|
--------------------------------------------------|


------------------------------------------------------------|
------------------------------------------------------------|
--12-10-9-12-10-9-10p-9p-7----9p-7p-6---7p-6------6---------|
---------------------------11---------8------8p-7---8p-7p-5-|
------------------------------------------------------------|
------------------------------------------------------------|


----------------------------------------|---------------------|
----------------------------------------|---------------------|
-----------6-6---7-6--------------6~----|---------------L-----|
--8--7--8------8-----8-7--7b--7~--------|------------------7--|
----------------------------------------|---------------------|
----------------------------------------|---------------------|


---------------------------|------------------------|
---------------------------|------------------------|
--7~------10--9--7--10--7--|--9--7------------------|
---------------------------|--------8~----8s-10~-L--|
---------------------------|------------------------|
---------------------------|------------------------|


---------------------------------------------------------------------------------|
---------------------------------------------------------------10-10-10-10-10-10-|
-------------9-9-9-9-9-9S-10-10-10-10-10-10S-12-12-12-12-12-12-------------------|
--10s-12~-L----------------------------------------------------------------------|
---------------------------------------------------------------------------------|
---------------------------------------------------------------------------------|


---------------------------------------------------------------------------------|
--11-11-11-11-11-11S-10-10-10-10-10-10S-13-13-13-13-13-13S-11-11-11-11-11-11S-10-|
---------------------------------------------------------------------------------|
---------------------------------------------------------------------------------|
---------------------------------------------------------------------------------|
---------------------------------------------------------------------------------|


---------------------------------------------------------------------------------|
--14-14-14-14-14-14S-15-15-15-15-15-15S-17-17-17-17-17-17S-18-18-18-18-18-18S-17-|
---------------------------------------------------------------------------------|
---------------------------------------------------------------------------------|
---------------------------------------------------------------------------------|
---------------------------------------------------------------------------------|

------------------|-------------------||
--15~--------L----|--15S----x---------||
------------------|-------------------||
------------------|-------------------||
------------------|-------------------||
------------------|-------------------||

----------------
L - tied note
x - dead note
g - grace note
(n) - ghost note
> - accentuded note
NH - natural harmonic
AH - artificial harmonic
TH - tapped harmonic
SH - semi harmonic
PH - pitch harmonic
h - hammer on
p - pull off
b - bend
br - bendRelease
pb - preBend
pbr - preBendRelease
brb - bendReleaseBend
\n/ - tremolo bar dip
\n - tremolo bar dive
-/n - tremolo bar Release up
/n\ - tremolo bar inverted dip
/n - tremolo bar return
-\n - tremolo bar Release down
S - shift slide
s - legato slide
/ -  slide into from below or out of upwards
\ -  slide into from above or out of downwards
~ - vibrato
W - wide vibrato
tr - trill
TP - tremolo picking
T - tapping
S - slap
P - pop
Tap to rate this tab
 
# A B C D E F G H I J K L M N O P Q R S T U V W X Y Z