Song name
# A B C D E F G H I J K L M N O P Q R S T U V W X Y Z

Guns N Roses - Dont Damn Me tab

Gtr I (Eb Ab Db Gb Bb Eb) - 'Slash Rhythm'
Gtr II (Eb Ab Db Gb Bb Eb) - 'Izzy'
Gtr III (Eb Ab Db Gb Bb Eb) - 'Slash Solo'

 Intro
  Fast Rock Q=180
            F#5                      E5              A5    F#5      A5 F#5  A5
 4/4
  Gtr I
          PM               PM|   PM|             PM|
  H    Q  E  E    +E   E E S S E E E E   +E  E E S S E E E E   +Q   Q  Q  E E
|--------------|-----------------------|---------------------|----------------|
|--------------|-----------------------|---------------------|----------------|
|--------------|-----------------------|---------------------|----------------|
|-----------11-|-(11)-11-------------9-|-(9)-9---------------|--------------2-|
|------------9-|--(9)--9-7-----9---6-7-|-(7)-7-------7-7---4-|-(4)--7--4----0-|
|---------0----|-----------9-9---9-----|-------9-7-7-5-5---2-|-(2)--5--2--4---|


        C#B5  E5  F#5                      E5
                                 PM|   PM|
  +E  E E E E E E  E    +E   E E S S E E E E
|--------------------|-----------------------|
|--------------------|-----------------------|
|--------------------|-----------------------|
|-(2)---6s4---9---11-|-(11)-11-------------9-|
|-(0)-0-4s2---7----9-|--(9)--9-7-----9---6-7-|
|-----------0--------|-----------9-9---9-----|
|
| Gtr II
|  H        Q   E  E     H           Q   E E
|--------------------|-----------------------|
|--------------------|-----------------------|
|--------------------|-----------------------|
|-----------------11-|---------------------9-|
|------------------9-|---------------------7-|
|--------------------|-----------------------|


               A5         F#5  A5 F#5  A5
           PM|
  +E   E E S S E E E  E   +Q   Q  Q  E E
|-----------------------|-----------------|
|-----------------------|-----------------|
|-----------------------|-----------------|
|-(9)--9----------------|--------------2--|
|-(7)--7-------7-7----4-|-(4)--7--4----0--|
|--------9-7-7-5-5----2-|-(2)--5--2--4----|
|
| +Q     Q     E E E  E    H      Q  E E
|-----------------------|-----------------|
|-----------------------|-----------------|
|-----------------------|-----------------|
|-(9)\---------------11-|--------------2--|
|-(7)\---------7-7----9-|--------------0--|
|--------------5-5------|-----------------|


                     $$
        C#B5  E5  F#5                       E5
                                  PM|   PM|
  +E  E E E E E E  E     +E   E E S S E E E E
|--------------------||-----------------------|
|--------------------||-----------------------|
|--------------------||-----------------------|
|-(2)---6s4---9---11-||-(11)-11-------------9-|
|-(0)-0-4s2---7----9-||--(9)--9-7-----9---6-7-|
|-----------0--------||-----------9-9---9-----|
|
|                                 PM|   PM|
|  H        E E E  E     +E   E E S S E E E E
|--------------------||-----------------------|
|--------------------||-----------------------|
|--------------------||-----------------------|
|-----------------11-||-(11)-11-------------9-|
|-----------2-2----9-||--(9)--9-7-----9---6-7-|
|-----------0-0------||-----------9-9---9-----|


              A5    F#5      A5 F#5  A5        C#B5  E5  E5
  Gtrs I, II
          PM|
  +E  E E S S E E E E   +Q   Q  Q  E E   +E  E E E E E E  E
|---------------------|----------------|--------------------|
|---------------------|----------------|--------------------|
|---------------------|----------------|--------------------|
|-(9)-9---------------|--------------2-|-(2)---6s4---9---11-|
|-(7)-7-------7-7---4-|-(4)--7--4----0-|-(0)-0-4s2---7----9-|
|-------9-7-7-5-5---2-|-(2)--5--2--4---|-----------0--------|


                      E5              A5    F#5
            PM|   PM|             PM|
   +E   E E S S E E E E   +E  E E S S E E E E
|-----------------------|---------------------|
|-----------------------|---------------------|
|-----------------------|---------------------|
|-(11)-11-------------9-|-(9)-9---------------|
|--(9)--9-7-----9---6-7-|-(7)-7-------7-7---4-|
|-----------9-9---9-----|-------9-7-7-5-5---2-|


       A5 F#5  A5        C#B5E5    F#5
                             PM--|
  +Q   Q  Q  E E   +E  E E E E E E E
|----------------|--------------------||
|----------------|--------------------||
|----------------|--------------------||
|--------------2-|-(2)---6s4----------||
|-(4)--7--4----0-|-(0)-0-4s2-2-2-2-4--||
|-(2)--5--2--4---|-----------0-0-0-2--||


                    A5          E5          F#5
      PM  PM    PM|         PM     PM-|
  +E  E E E  E  E E E   +E  E E E  E  E  E   E
|---------------------|-------------------------|
|---------------------|-------------------------|
|---------------------|-------------------------|
|-------------------2-|-(2)---6s4-------[3]s[4]-|
|-(4)---6----4------0-|-(0)-0-4s2--2--2---------|
|-(2)-2---2-----2-4---|------------0--0---------|
|
| Gtr II
|               PM|
| +H        +E  E E E   +Q    E E +Q.        E
|---------------------|-------------------------|
|---------------------|-------------------------|
|---------------------|-------------------------|
|---------------------|-------------------------|
|-(4)-------(4)-----7-|-(7)---4-2-(2)--------4--|
|-(2)-------(2)-2-4-5-|-(5)-----0-(0)--------2--|


      PM  PM  PM|         PM     PM-|
   E  E E E E E E E   +E  E E E  E  E  E   E
|-------------------|-------------------------|
|-------------------|-------------------------|
|-------------------|-------------------------|
|-----------------2-|-(2)---6s4-------[3]s[4]-|
|-------6---4-----0-|-(0)-0-4s2--2--2---------|
|-----2---2---2-4---|------------0--0---------|
|
| +W                  +H        +E  E  E   E
|-------------------|-------------------------|
|-------------------|-------------------------|
|-------------------|-------------------------|
|-------------------|---------------------11--|
|-(4)---------------|-(4)-------(4)-x--x---9--|
|-(2)---------------|-(2)-------(2)-x--x------|


                      A5                 E5      F#5
       PM   PM    PM|            PM      PM|
    E  E  E E  E  E E  E    +E   E  E  E E E  E   E
|------------------------|----------------------------|
|------------------------|----------------------------|
|------------------------|----------------------------|
|----------------------2-|--(2)-----6s=4-----[3]s[4]--|
|---------6----4-------0-|--(0)--0--4s=2-2-2----------|
|------2----2-----2-4----|---------------0-0----------|
|
|  +Q     Q    E  E E  E    +E   E  Q    E E  E   E
|------------------------|----------------------------|
|------------------------|----------------------------|
|------------------------|----------------------------|
|-(11)---11---11-11-x-14-|-(14)-14-14\---9-9--9--11---|
|--(9)----9----9--9-x-12-|-(12)-12-12\---7-7--7---9---|
|------------------------|----------------------------|


         To Dbl. Coda
       PM  PM  PM|            PM
    E  E E E E E E E     +E   E E E E E E  E
|---------------------|----------------------||
|---------------------|----------------------||
|---------------------|----------------------||
|------------------2--|--(2)----6s4-------11-||
|--------6---4-----0--|--(0)--0-4s2-2-2-2--9-||
|------2---2---2-4----|-------------0-0-0----||
|
|  +W                    +H..              E
|---------------------|----------------------||
|---------------------|----------------------||
|---------------------|----------------------||
|-(11)----------------|-(11)--------------11-||
|--(9)----------------|--(9)---------------9-||
|---------------------|----------------------||


                        E5              A5     F#5
   +Q      E E   E  E E E   +E  E E E   Q.     E
|-------------------------|----------------------|
|-------------------------|----------------------|
|-------------------------|----------------------|
|-(11)----11-x---x-11---9-|-(9)-9-9-x------------|
|--(9)-----9-x---x--9---7-|-(7)-7-7-x---7------4-|
|-------------------------|-------------5------2-|
|
|            PM|    PM|             PM|
|  +E   E  E S S E  E E E   +E  E E S S E  E E E
|-------------------------|----------------------|
|-------------------------|----------------------|
|-------------------------|----------------------|
|-(11)-11---------------9-|-(9)-9----------------|
|--(9)--9--7-----9----6-7-|-(7)-7-------7--7---4-|
|------------9-9----9-----|-------9-7-7-5--5---2-|


        A5   F#5 A5        C#B5E5    F#5
           PM
  +E  E Q  E E E E    Q    E E E E E  E
|------------------|---------------------|
|------------------|---------------------|
|------------------|---------------------|
|----------------2-|-------6s4-------11--|
|-(4)-4-7----4---0-|-------4s2-2-2-2--9--|
|-(2)-2-5--0-2-----|-----------0-0-0-----|
|
| +Q    Q  Q   E E   +E  E E E E E E  E
|------------------|---------------------|
|------------------|---------------------|
|------------------|---------------------|
|----------------2-|-(2)---6s4---9---11--|
|-(4)---7--4-----0-|-(0)-0-4s2---7----9--|
|-(2)---5--2---4---|-----------0---------|


                        E5              A5    F#5
   +E   E  Q     E  E E E    E  E Q     E E E E
|-------------------------|---------------------|
|-------------------------|---------------------|
|-------------------------|---------------------|
|-(11)-11-11-----x-11---9-|-----x-9-------------|
|--(9)--9--9-----x--9---7-|-----x-7-----7-7-7-4-|
|-------------------------|-------------5-5-5-2-|
|
|            PM|    PM|             PM|
|  +E   E  E S S E  E E E   +E  E E S S E E E E
|-------------------------|---------------------|
|-------------------------|---------------------|
|-------------------------|---------------------|
|-(11)-11---------------9-|-(9)-9---------------|
|--(9)--9--7-----9----6-7-|-(7)-7-------7-7---4-|
|------------9-9----9-----|-------9-7-7-5-5---2-|


       A5  F#5   A5        C#B5E5   F#5
  +Q   Q   E E E E    E  E E E Q  E  E
|------------------|--------------------||
|------------------|--------------------||
|------------------|--------------------||
|------------------|----------------11--||
|-(4)--7\----4---7-|-----x-----2-----9--||
|-(2)--5\--0-2---5-|-----x-5-5-0--------||
|
| +Q   Q   Q   E E   +E  E E E H
|------------------|--------------------||
|------------------|--------------------||
|------------------|--------------------||
|----------------2-|-(2)---6s4-2--------||
|-(4)--7---4-----0-|-(0)-0-4s2-2--------||
|-(2)--5---2---4---|-----------0--------||


                      E5            A5        F#5
  Gtr II
       PM  PM     PM|         PM     PM|
    E  E E E   E  E E E   +E  E E E  E  E  E   E
|-----------------------|-------------------------|
|-----------------------|-------------------------|
|-----------------------|-------------------------|
|---------------------2-|-(2)---6s4-------[3]s[4]-|
|---4----6-----4------0-|-(0)-0-4s2--2--2---------|
|---2--2---2------2-4---|------------0--0---------|
|
| Gtr I
|  +H         +E  E E E   +E  E E E  E  E  E   E
|-----------------------|-------------------------|
|-----------------------|-------------------------|
|-----------------------|-------------------------|
|-(11)-------(11)-x---9-|-(9)-9-9-x-14-14-----11--|
|--(9)--------(9)-x---7-|-(7)-7-7-x-12-12------9--|
|-----------------------|-------------------------|


                   A5              E5      F#5
       PM  PM  PM|          PM     PM|
    E  E E E E E E  E   +E  E  E E E E  E   E
|---------------------|------------------------|
|---------------------|------------------------|
|---------------------|------------------------|
|-------------------2-|-(2)----6s4-----[3]s[4]-|
|--------6---4------0-|-(0)-0--4s2-2-2---------|
|------2---2---2-4----|------------0-0---------|
|
|  +H        E E E  E    E  E  E E E E  E   E
|---------------------|------------------------|
|---------------------|------------------------|
|---------------------|------------------------|
|-(11)-------x-x-x-14-|-----x-14---9-9--9--11--|
|--(9)-------x-x-x-12-|-----x-12---7-7--7---9--|
|---------------------|------------------------|


                       E5            A5        F#5
       PM  PM      PM|         PM     PM|
    E  E E E   E   E E E   +E  E E E  E  E  E   E
|------------------------|--------------------------|
|------------------------|--------------------------|
|------------------------|--------------------------|
|----------------------2-|-(2)---6s4-------[3]s[4]--|
|--------6-----4-------0-|-(0)-0-4s2--2--2----------|
|------2---2-------2-4---|------------0--0----------|
|
|  +H         +E   Q   E   +Q    E E  E  E  E   E
|------------------------|--------------------------|
|------------------------|--------------------------|
|------------------------|--------------------------|
|-(11)-------(11)-11---9-|-(9)---9-x-14-14-----11---|
|--(9)--------(9)--9---7-|-(7)---7-x-12-12------9---|
|------------------------|--------------------------|


                       A5                 E5
       PM  PM      PM|            PM
    E  E E E   E   E E  E    +E   E  E  E H
|-------------------------|-----------------------||
|-------------------------|-----------------------||
|-------------------------|-----------------------||
|-----------------------2-|--(2)-----6s=4---------||
|--------6-----4--------0-|--(0)--0--4s=2-2-------||
|------2---2-------2-4----|---------------0-------||
|
|  +H         +E   E E  E    +E   E  E  E E E E E
|-------------------------|-----------------------||
|-------------------------|-----------------------||
|-------------------------|-----------------------||
|-(11)-------(11)-11---14-|-(14)-14-14-14-9-9-9-9-||
|--(9)--------(9)--9---12-|-(12)-12-12-12-7-7-7-7-||
|-------------------------|-----------------------||


  $
  A5D5          A5    D5        A5  A#5 B5E5                 B5   E5      A5
  Gtrs I, II
        ~~~~~~            ~~~~~~              ~~~~~~~~~~~~
  E E E E +Q.   E   E E E E +E  E E E   E E E E +Q   +Q      Q.   E +Q.   E
|-----------------|-------------------|--------------------|-----------------|
|-----------------|-------------------|--------------------|-----------------|
|---7-7-7-(7)-----|---7-7-7-(7)-------|---9-9-9-(9)--(9)\--|------7-(7)------|
|---7-7-7-(7)-----|---7-7-7-(7)-------|---9-9-9-(9)--(9)\--|------7-(7)------|
|-7-------------7-|-7-----------7-7-8-|-9------------------|-9------------7--|
|-5-------------5-|-5-----------5-5-6-|-7------------------|-7------------5--|


    D5          A5    D5        A5  A#5 B5E5
        ~~~~~~            ~~~~~~              ~~~~~~
  E E E E +Q.   E   E E E E +E  E E E   E E E E +H
|-----------------|-------------------|----------------|
|-----------------|-------------------|----------------|
|---7-7-7-(7)-----|---7-7-7-(7)-------|---9-9-9-(9)----|
|---7-7-7-(7)-----|---7-7-7-(7)-------|---9-9-9-(9)----|
|-7-------------7-|-7-----------7-7-8-|-9--------------|
|-5-------------5-|-5-----------5-5-6-|-7--------------|


         C#5   F#5                       E5
                               PM|   PM|
  E E Q  E E E  E     +E   E E S S E E E E
|-----------------||-----------------------|
|-----------------||-----------------------|
|-----------------||-----------------------|
|-9-9----6-6---11-||-(11)-11-------------9-|
|-7-7----4-4----9-||--(9)--9-7-----9---6-7-|
|-----------------||-----------9-9---9-----|


              A5    F#5      A5 F#5  A5        C#B5  E5  F#5
          PM|
  +E  E E S S E E E E   +Q   Q  Q  E E   +E  E E E E E E  E
|---------------------|----------------|--------------------|
|---------------------|----------------|--------------------|
|---------------------|----------------|--------------------|
|-(9)-9---------------|--------------2-|-(2)---6s4---9---11-|
|-(7)-7-------7-7---4-|-(4)--7--4----0-|-(0)-0-4s2---7----9-|
|-------9-7-7-5-5---2-|-(2)--5--2--4---|-----------0--------|


                      E5              A5    F#5
            PM|   PM|             PM|
   +E   E E S S E E E E   +E  E E S S E E E E
|-----------------------|---------------------|
|-----------------------|---------------------|
|-----------------------|---------------------|
|-(11)-11-------------9-|-(9)-9---------------|
|--(9)--9-7-----9---6-7-|-(7)-7-------7-7---4-|
|-----------9-9---9-----|-------9-7-7-5-5---2-|
|
| Gtr II
|           PM|   PM|             PM|
|  +E   E E S S E E E E   +E  E E S S E E E E
|-----------------------|---------------------|
|-----------------------|---------------------|
|-----------------------|---------------------|
|-(11)-11-------------9-|-(9)-9---------------|
|--(9)--9-7-----9---6-7-|-(7)-7-------7-7---4-|
|-----------9-9---9-----|-------9-7-7-5-5---2-|


          To Coda
       A5 F#5  A5         C#B5  E5  F#5
  +Q   Q  Q  E E    +E  E E E E E E  E
|-----------------|--------------------||
|-----------------|--------------------||
|-----------------|--------------------||
|--------------2--|-(2)---6s4---9------||
|-(4)--7--4----0--|-(0)-0-4s2---7----4-||
|-(2)--5--2--4----|-----------0------2-||
|
|                             PM--|
| +Q   Q  Q  E E    +E  E E E E E E  E
|-----------------|--------------------||
|-----------------|--------------------||
|-----------------|--------------------||
|--------------2--|-(2)---6s4-------11-||
|-(4)--7--4----0--|-(0)-0-4s2--------9-||
|-(2)--5--2--4----|-----------0-0-0----||


                      A5          E5          F#5
       PM  PM     PM|         PM     PM-|
   +E  E E E   E  E E E   +E  E E E  E  E  E   E
|-----------------------|-------------------------|
|-----------------------|-------------------------|
|-----------------------|-------------------------|
|---------------------2-|-(2)---6s4-------[3]s[4]-|
|--(4)---6-----4------0-|-(0)-0-4s2--2--2---------|
|--(2)-2---2------2-4---|------------0--0---------|
|
|  +H         +E  E E E   +Q    E E +Q.        E
|-----------------------|-------------------------|
|-----------------------|-------------------------|
|-----------------------|-------------------------|
|-(11)-------(11)-----2-|-(2)-----------------11--|
|--(9)--------(9)-----0-|-(0)---4-2-(2)--------9--|
|-----------------2-4---|---------0-(0)-----------|


                    A5                           F#5
        PM  PM  PM|           PM
    E   E E E E E E  E    +E  E E  E   E   E  E   E
|----------------------|------------------------------|
|----------------------|------------------------------|
|----------------------|------------------------------|
|--------------------2-|--(2)---6s=4---------[3]s[4]--|
|---------6---4------0-|--(0)-0-4s=2---2---2----------|
|-------2---2---2-4----|---------------0---0----------|
|
|  +H..              E    +E  E E  E  +E   E  E   E
|----------------------|------------------------------|
|----------------------|------------------------------|
|----------------------|------------------------------|
|-(11)--------------14-|-(14)-x---14-(14)-14-----11---|
|--(9)--------------12-|-(12)-x---12-(12)-12------9---|
|----------------------|------------------------------|


                    A5                E5       F#5
    E   E E E E E E  E    +E   E  E E E  E  E   E
|----------------------|---------------------------|
|----------------------|---------------------------|
|----------------------|---------------------------|
|--------------------2-|--(2)-----6-4------[3]-[4]-|
|---------6---4------0-|--(0)--0--4-2-2--2---------|
|-------2---2---2-4----|--------------0--0---------|
|
|  +H..              E    +E   E  Q   Q.        E
|----------------------|---------------------------|
|----------------------|---------------------------|
|----------------------|---------------------------|
|-(11)--------------14-|-(14)-14-14---9--------11--|
|--(9)--------------12-|-(12)-12-12---7---------9--|
|----------------------|---------------------------|


                              D.S. al Coda
                                     E5
    E  E E E E E E E    +E  E E E  H
|--------------------|---------------------||
|--------------------|---------------------||
|--------------------|---------------------||
|------------------2-|--(2)---6s4----------||
|--------6---4-----0-|--(0)-0-4s2--2-------||
|------2---2---2-4---|-------------0-------||
|
|  +W                   +H         E E Q
|--------------------|---------------------||
|--------------------|---------------------||
|--------------------|---------------------||
|-(11)---------------|-(11)-------11s9-----||
|--(9)---------------|--(9)--------9s7-----||
|--------------------|---------------------||


  &
  A5  C#B5E5
  E E E E H
|--------------||
|--------------||
|--------------||
|-2---6s4------||
|-0-0-4s2-2----||
|---------0----||


 Bridge (Half Time Feel)
  Slower Q=120
  D5         A5               E5                             Esus4 E
  Gtr II
  W          H    +E  E E E   Q  E E E   +E  E E    E  E E E  E  E E E
|----------|----------------|--------------------|----------------------|
|-3--------|-2----(2)-2-2-2-|--------------------|----------------------|
|-2--------|-2----(2)-2-2-2-|--------------------|----------------------|
|-0--------|-2----(2)-2-2-2-|--------------------|-------2-2--2--2-2-2--|
|-0--------|-0----(0)-0-0-0-|-2------------------|-----2-2-2------------|
|----------|----------------|-0--3p0-2b3r(2)-0-0-|----------------------|
|
| Gtr I
|                                                          PM|
| W          H    +E  E Q     W                    +Q    E E  E  E E E
|----------|----------------|--------------------|----------------------|
|----------|----------------|--------------------|-----------10-10-9-9--|
|-7--------|-2----(2)-2-2---|-9------------------|-(9)---9----9--9-9-9--|
|-7--------|-2----(2)-2-2---|-9------------------|-(9)---9----9--9-9-9--|
|-5--------|-0----(0)-0-0---|-7------------------|-(7)---7----7--7-7-7--|
|----------|----------------|--------------------|---------0------------|


  D5                 A5
  a H    +E  E E E   +W
|------------------|-----------------|
|------------------|-----------------|
|------------------|-----------------|
|------------------|-----------------|
|-4s5----(5)-4-2-0-|-(0)-------------|
|------------------|-----------------|
|
|   W                 H     +E  E Q
|------------------|-----------------|
|------------------|-----------------|
|---7--------------|--2-----(2)-2-2--|
|---7--------------|--2-----(2)-2-2--|
|---5--------------|--0-----(0)-0-0--|
|------------------|-----------------|


  E5
   Q  E E E E E  E    E   E E  E  E   E a  Q
|------------------|---------------------------|
|------------------|---------------------------|
|------------------|--------------9-----9h11---|
|------------------|--------9h11-----11--------|
|---------7h9-9s11-|-10h=11--------------------|
|-/4--7-9----------|---------------------------|
|
|  W                 +H          +E   E    Q
|------------------|---------------------------|
|------------------|---------------------------|
|--9---------------|-(9)---------(9)--9----9---|
|--9---------------|-(9)---------(9)--9----9---|
|--7---------------|-(7)---------(7)--7----7---|
|------------------|---------------------------|


  D5               A5                    E5
   ~~               ~~                         ~~~~~~~~~~~~
   H     E E  Q     H     E  E  E    E   H    +H       +H.           Q
|----------------|---------------------|-------------|----------------------|
|----------------|---------------------|-------------|----------------------|
|-11----11-9-----|-------11--9-11b13-9-|-9----(9)----|-(9)----------11b13---|
|------------12--|-11------------------|-------------|----------------------|
|----------------|---------------------|-------------|----------------------|
|----------------|---------------------|-------------|----------------------|
|
|                                                            PM|
|  W                H    +E  E  E    E   W             +E  E E E Q   Q
|----------------|---------------------|-------------|----------------------|
|----------------|---------------------|-------------|----------------------|
|--7-------------|--2----(2)-2--2----2-|-9-----------|-(9)-9-----9---9------|
|--7-------------|--2----(2)-2--2----2-|-9-----------|-(9)-9-----9---9------|
|--5-------------|--0----(0)-0--0----0-|-7-----------|-(7)-7-----7---7------|
|----------------|---------------------|-------------|-------0-0------------|


  D5               A5
   ~~               ~~
   H     E E  Q     H     E  E  E    E
|----------------|---------------------|
|----------------|---------------------|
|-11----11-9-----|-------11--9-11b13-9-|
|------------12--|-11------------------|
|----------------|---------------------|
|----------------|---------------------|
|
|  W                H    +E  E  E    E
|----------------|---------------------|
|----------------|---------------------|
|--7-------------|--2----(2)-2--2----2-|
|--7-------------|--2----(2)-2--2----2-|
|--5-------------|--0----(0)-0--0----0-|
|----------------|---------------------|


  E5
              ~~~~~
   H         +Q.    E    Q      E  E  E E E  E
|---------------------|--------12-12------------|
|-------------------9-|-12b14--12-12-12-9-9-----|
|-11b13=====(11)r-----|--------------12-----12--|
|---------------------|-------------------------|
|---------------------|-------------------------|
|---------------------|-------------------------|
|
|  W                    +H            E E E  E
|---------------------|-------------------------|
|---------------------|-------------------------|
|--9------------------|-(9)-----------9-9-9--9--|
|--9------------------|-(9)-----------9-9-9--9--|
|--7------------------|-(7)-----------7-7-7--7--|
|---------------------|-------------------------|


  D5                     A5
   ~~                ~~~~~~~~
   H     Q       +E  E   +H      E      +E   S S  S S
|----------------------|------------------------------|
|----------------------|------------------------------|
|-11----11pb12r=(11)-9-|-(9)----11pb13r(11)-11p9----9-|
|----------------------|-------------------------11---|
|----------------------|------------------------------|
|----------------------|------------------------------|
|
|  W                      H      Q           Q
|----------------------|------------------------------|
|----------------------|------------------------------|
|--7-------------------|--2------2-----------2--------|
|--7-------------------|--2------2-----------2--------|
|--5-------------------|--0------0-----------0--------|
|----------------------|------------------------------|


  E5
   Q        E    E   Q   E E    E   E E  E E  E  E  E
|----------------------------|-------------------------|
|----------12---12---9--10p9S|=12--10p9h10-9-----------|
|-11b13===(11)-(11)r---------|---------------12-12-11--|
|----------------------------|-------------------------|
|----------------------------|-------------------------|
|----------------------------|-------------------------|
|
|                                     PM|
|  H                 H         +E   E E  E E  E  E  E
|----------------------------|-------------------------|
|----------------------------|-------------------------|
|--9-----------------9-------|-(9)--9------9--9--9--9--|
|--9-----------------9-------|-(9)--9------9--9--9--9--|
|--7-----------------7-------|-(7)--7------7--7--7--7--|
|----------------------------|--------0--0-------------|


  D5                       A5
   ~~                       ~~
   H     E      +E  E  E    H     E     +E   S S E
|------------------------|-------------------------|
|------------------------|-------------------------|
|-11----11pb12r(11)-9----|-------------------------|
|---------------------12-|-11----11b12r(11)-11p9-9-|
|------------------------|-------------------------|
|------------------------|-------------------------|
|
|  W                        W
|------------------------|-------------------------|
|------------------------|-------------------------|
|--7---------------------|--2----------------------|
|--7---------------------|--2----------------------|
|--5---------------------|--0----------------------|
|------------------------|-------------------------|


  E5                                        F#5
                ~~~~~~~~~~~~~~~~
  Q      +Q    +H          +H..              E
|------------------------|---------------------||
|------------------------|---------------------||
|------------------------|---------------------||
|-9b11r==(9)---(9)-------|-(9)--------------11-||
|------------------------|-------------------9-||
|------------------------|---------------------||
|
| E    E  E  E  E  E E E    E   E E E E E E  E
|------------------------|---------------------||
|------------------------|---------------------||
|------------------------|---------------------||
|------------------------|------------------11-||
|-2----2--2--2--2--2-2-2-|--2---2-2-2-2-2-2--9-||
|-0----0--0--0--0--0-0-0-|--0---0-0-0-0-0-0----||


  Tempo I Q=180
                          E5              A5    F#5
  Gtr I
   +Q      +Q       H          W
|---------------------------|---------------------|
|---------------------------|---------------------|
|---------------------------|---------------------|
|-(11)----(11)\-------------|---------------------|
|--(9)-----(9)\-------------|---------------------|
|---------------------------|---------------------|
|
| Gtr II
|               PM|   PM|             PM|
|  +E   E   E   S S E E E E   +E  E E S S E E E E
|---------------------------|---------------------|
|---------------------------|---------------------|
|---------------------------|---------------------|
|-(11)-11-----------------9-|-(9)-9---------------|
|--(9)--9---7-------9---6-7-|-(7)-7-------7-7---4-|
|---------------9-9---9-----|-------9-7-7-5-5---2-|


       A5 F#5  A5        C#B5  E5  F#5
   W                H        Q   E  E
|----------------|---------------------|
|----------------|---------------------|
|----------------|---------------------|
|----------------|-----------------11--|
|----------------|------------------9--|
|----------------|---------------------|
|
| +Q   Q  Q  E E   +E  E E E E E E  E
|----------------|---------------------|
|----------------|---------------------|
|----------------|---------------------|
|--------------2-|-(2)---6s4---9---11--|
|-(4)--7--4----0-|-(0)-0-4s2---7----9--|
|-(2)--5--2--4---|-----------0---------|


                       E5              A5    F#5
   +Q      Q     Q   E E    H          E E E  E
|------------------------|----------------------|
|------------------------|----------------------|
|------------------------|----------------------|
|-(11)\----------------9-|-------------------11-|
|--(9)\----------------7-|-------------7-7----9-|
|------------------------|-------------5-5------|
|
|            PM|   PM|             PM|
|  +E    E E S S E E E E   +E  E E S S E E E  E
|------------------------|----------------------|
|------------------------|----------------------|
|------------------------|----------------------|
|-(11)--11-------------9-|-(9)-9----------------|
|--(9)---9-7-----9---6-7-|-(7)-7-------7-7----4-|
|------------9-9---9-----|-------9-7-7-5-5----2-|


                      D.S.S. al Dbl. Coda
       A5 F#5  A5        C#5  B5  E5  F#5
   H      Q  E E   +Q    +Q     E E E  E
|----------------|------------------------||
|----------------|------------------------||
|----------------|------------------------||
|----------------|--------------------11--||
|--------------7-|-(7)---(7)\----------9--||
|--------------5-|-(5)---(5)\---0-0-0-----||
|
| +Q   Q  Q  E E   +E  E  E   E E E E  E
|----------------|------------------------||
|----------------|------------------------||
|----------------|------------------------||
|--------------2-|-(2)----6s==4---9---11--||
|-(4)--7--4----0-|-(0)-0--4s==2---7----9--||
|-(2)--5--2--4---|--------------0---------||


                           Guitar Solo
  &&
  F#5        A5       F#5
  Gtrs I, II
   E  E  E E  E  E  E  E     +E   E Q     H
|------------------------||-------------------------|
|------------------------||-------------------------|
|------------------------||-------------------------|
|-11-11-11-x-14-14-14-11-||-(11)-11-----------------|
|--9--9--9-x-12-12-12--9-||--(9)--9-----------------|
|------------------------||-------------------------|
|
| Gtr III
|                      ~~~~~~~~~~      PM    PM|  ~~~
|  H          Q     E  E     +Q     E  E  E  E  E E
|------------------------||-------------------------|
|------------------------||-------------------------|
|---------------------11-||-(11)----9----11-------9-|
|-------------------x----||-----------11----10-11---|
|------------------------||-------------------------|
|------------------------||-------------------------|


                       F#5
   H          Q.        E
|----------------------------|
|----------------------------|
|----------------------------|
|----------------------------|
|-----------------------4----|
|-------------9S========2----|
|
|~~~~~
| +E   E  E E E E E    +S  S
|----------------------------|
|----------------------------|
|-(9)------------------------|
|-----11-10-9-7-9-9b11r(9)p7-|
|----------------------------|
|----------------------------|


                 E5                A5       F#5
           PM    PM            PM|    PM|       PM|             PM
  +Q   Q   E E E E      Q      E E Q  E E   Q   E E Q         E E
|--------------------|--------------------|-----------------------|
|--------------------|--------------------|-----------------------|
|--------------------|--------------------|-----------------------|
|--------------------|-------------2------|-----------------------|
|-(4)--4---4-4-4-2---|--2------2-2-0------|-4---4-4-4-------------|
|-(2)--2---2-2-2-0---|--0------0-0----2-0-|-2---2-2-2---------9-0-|
|
|          ~                     PM~    PM      PM|             PM
|  E E E E Q   E E     +E  +E  E E Q  E E   E E E E E   +S  S E E
|--------------------|--------------------|-----------------------|
|--------------------|--------------------|-----------------------|
|--------------------|--------------------|-----------------------|
|--9p7-----------7b9-|-(7)-(7)-----7------|-----------------------|
|------9-7-9---9-----|---------9---7--9-7-|-9-7-------------------|
|--------------------|-----------5--------|-9---9-8-7b8r(7)p5-7-5-|


                 F#5                              E5
                           PM---------|       PM--|
  H        Q.    E   +E    E  E   E   E E     E   E
|------------------|------------------------------------|
|------------------|------------------------------------|
|------------------|------------------------------------|
|------------------|------------------------------------|
|----------------4-|-(4)---4--4---4---4-4-----4---2-----|
|-0--------0-----2-|-(2)---2--2---2---2-2-----2---0-----|
|
|     PM~~~~~~
|                                       |-3-|     |-3-|
| E E E E +Q   Q      S S  E  E a S S E S S S S S S S S
|------------------|------------------------------------|
|------------------|------------------------------------|
|------------------|------------------------------------|
|------------------|--------------------------6h7p6---6-|
|------------------|------------7h9p7-9-6h7h9-------9---|
|-5h7-5-5-(5)--7---|--5h7-[9]-9-------------------------|


                   A5             F#5
  Q.             E  E   E     E    E
|---------------------------------------|
|---------------------------------------|
|---------------------------------------|
|-------------------2---2---------------|
|-2-----------------0---0----------4----|
|-0--------------------------------2----|
|
|              ~
|                       |-3-|
| S  S T T T T Q   +E   S S S S S  S S
|---------------------------------------|
|---------------------------------------|
|----6--------------------8h9p8------9--|
|-7----7h9p7s6-7---(7)-11-------9-11----|
|---------------------------------------|
|---------------------------------------|


             PM---|                 PM
  +Q         E    E    E     E      E      E
|-----------------------------------------------|
|-----------------------------------------------|
|-----------------------------------------------|
|-----------------------------------------------|
|-(4)--------4----4----4-----4------4------4----|
|-(2)--------2----2----2-----2------2------2----|
|
|  S  S S  S S  S S  S S  S  S  S  +S   S  S  S
|-----------------------------------------------|
|-------9h10p9----9h10-x-14-17-14-(14)----17----|
|--9h11--------11----------------------16----16-|
|-----------------------------------------------|
|-----------------------------------------------|
|-----------------------------------------------|


  A5                                  D5                                        A5
   Q        E    E     Q.              E        +Q     Q        E  E       E    E
|--------------------------------------------|----------------------------------------|
|--------------------------------------------|----------------------------------------|
|--------------------------------------------|----------------------------------------|
|--2--------2--------------------------7-----|--(7)----7--------7--7------------------|
|--0--------0--------------------------5-----|--(5)----5--------5--5------------7-----|
|----------------0-----0---------------------|----------------------------------5-----|
|
|                                                      ~~~~~~~~~~~~~
|           |---3---|                                                      |---3---|
|  S  S  E  E  E    E  S   S  S  S  E  E        +Q     Q       +E.    +S   E  E    E
|--------------------------------------------|----------------------------14----------|
|-14h17p14-14-------------------------17b19==|=(17)r--17b19===(17)r==(17)----17---14--|
|-------------17---16-14-----16----14--------|----------------------------------------|
|-------------------------16----16-----------|----------------------------------------|
|--------------------------------------------|----------------------------------------|
|--------------------------------------------|----------------------------------------|


                               F#5
             PM|
  +Q         E E   Q.          E
|-----------------------------------|
|-----------------------------------|
|-----------------------------------|
|-----------------------------------|
|-(7)--------7-7---7-----------4----|
|-(5)--------5-5---5-----------2----|
|
|                        |---3----|
|  E   Q.         +Q    +E   E    E
|-----------------------------------|
|-17--14b17======(14)r=(14)-14---15-|
|-----------------------------------|
|-----------------------------------|
|-----------------------------------|
|-----------------------------------|


                                                                             E5  D5
                        PM                    PM
  +Q        E.          S   Q.                E       Q        E  E        E E E  E
|--------------------------------------------------|---------------------------------|
|--------------------------------------------------|---------------------------------|
|--------------------------------------------------|---------------------------------|
|--------------------------------------------------|------------------------------7--|
|-(4)-------4-----------4---4-----------------4----|--4--------4--4--------4-2-2--5--|
|-(2)-------2-----------2---2-----------------2----|--2--------2--2--------2-0-0-----|
|
|                                                                          ~~
|  |--3--|  |--3---|        |--3---|  |----3-----|                |--3--|
|  E  E  E  E   E  E       +E   E  E  E  E       E    S  E  S  E  S  S  S  Q   E  E
|------------------------------14------------------|-----------------------------17--|
|-14h15p14-----14-----------------17-14---------14-|---------------------------------|
|----------16-----16b18---(16)----------16b18------|-16p14----16-14h16p14s13---0-----|
|--------------------------------------------------|-------16------------------------|
|--------------------------------------------------|---------------------------------|
|--------------------------------------------------|---------------------------------|


                           A5                                             F#5
           PM|
   +Q    E S S E Q          E       +E         E     E  E     Q         E  E
|--------------------------------|----------------------------------------------|
|--------------------------------|----------------------------------------------|
|--------------------------------|----------------------------------------------|
|--(7)---7-7-7-7-7---------------|----------------------------------------------|
|--(5)---5-5-5-5-5----------7----|--(7)--------7-----7--7-----7\-----------4----|
|---------------------------5----|--(5)--------5-----5--5-----5\-----------2----|
|
|        ~~~~~~~~~~~~~~~
|  +Q    H          +S   S  S  S    +S   T  T  S  S  E  S  S  E   S  S  E  S  S
|-(17)--17---------(17)-14-17-16-|-(16)h17p16p14-17-16-14-17-16--14-17-16-14-17-|
|--------------------------------|----------------------------------------------|
|--------------------------------|----------------------------------------------|
|--------------------------------|----------------------------------------------|
|--------------------------------|----------------------------------------------|
|--------------------------------|----------------------------------------------|


                PM---|
  +Q            E    E        Q.              E
|--------------------------------------------------|
|--------------------------------------------------|
|--------------------------------------------------|
|--------------------------------------------------|
|-(4)-----------4----4--------4---------------4----|
|-(2)-----------2----2--------2---------------2----|
|
|      |--3--|                |--3---|
|  E   S  S  S  S  E    T  T  E   E  E  S  S  S  S
|-16--17p16-17p16-14h==16p14s13--14----------------|
|-----------------------------------17-15h17-17p15-|
|--------------------------------------------------|
|--------------------------------------------------|
|--------------------------------------------------|
|--------------------------------------------------|


                                E5          D5
               PM---|
  +Q           E     E     E     E     E     E
|--------------------------------------------------|
|--------------------------------------------------|
|--------------------------------------------------|
|--------------------------------------------7-----|
|-(4)----------4-----4-----4-----2-----2-----5-----|
|-(2)----------2-----2-----2-----0-----0-----------|
|
|  S  S  S  S  S  S  S  S  S  S  S  S  S  S  E
|-------------------------------------------19b21==|
|-17p15p14-15-14h15p14s13-14p13s12h13p12-----------|
|----------------------------------------14--------|
|--------------------------------------------------|
|--------------------------------------------------|
|--------------------------------------------------|


                             A5                               F#5
                PM|                           PM|
   +Q     E     S S   E   Q   E    +Q      E  S S  Q        E  E
|-------------------------------|--------------------------------|
|-------------------------------|--------------------------------|
|-------------------------------|--------------------------------|
|--(7)----7-----7-7---7---7-----|--------------------------------|
|--(5)----5-----5-5---5---5---7-|--(7)-----7--7-7--7\----------4-|
|-----------------------------5-|--(5)-----5--5-5--5\----------2-|
|
|         ~~~~~~~~~~~~~~~~
|  +Q     Q          +Q.      E    +E   E  E  E    E  S  S  E  E
|-(19)r--19b21======(19)r----16-|-(16)-19-17-19---16h17p16----16-|
|-------------------------------|--------------------------19----|
|-------------------------------|--------------------------------|
|-------------------------------|--------------------------------|
|-------------------------------|--------------------------------|
|-------------------------------|--------------------------------|


            PM-|
  +Q        E    E      Q.          E
|-----------------------------------------|
|-----------------------------------------|
|-----------------------------------------|
|-----------------------------------------|
|-(4)-------4----4------4-----------4-----|
|-(2)-------2----2------2-----------2-----|
|
|                       ~~~
|  Q       +E   +S   S  Q    +S  S  E
|-----------------------------------------|
|-19b23===(19)r(19)-17-19---(19)p0-17b19==|
|-----------------------------------------|
|-----------------------------------------|
|-----------------------------------------|
|-----------------------------------------|


                               D5                                E5
            PM|                                  PM---|
   +Q       E  E  E      E   E  E        +Q      E  S S  E  E  E  E
|-------------------------------------|-----------------------------|
|-------------------------------------|-----------------------------|
|-------------------------------------|-----------------------------|
|-------------------------------7-----|--(7)-----7--7-7--7--7-----9-|
|--(4)------4--4--4------4---4--5-----|--(5)-----5--5-5--5--5-----7-|
|--(2)------2--2--2-------------------|-----------------------------|
|
|                               ~~~~~~~~~~~~~
|  +E    E  E  E  E     +E   E  E        +E   E  E  E    E  E  E  E
|-------14----------------------------|------14---------------------|
|-(17)r----17-14---------------17b19==|=(17)----17-16---15-14-------|
|----------------16b18r(16)-14--------|-----------------------17-16-|
|-------------------------------------|-----------------------------|
|-------------------------------------|-----------------------------|
|-------------------------------------|-----------------------------|


                          C#5                              E5
             PM|
  +Q      E  S S  E  E  E  E      +Q      E  E     E  E  E  E
|-------------------------------|--------------------------------------|
|-------------------------------|--------------------------------------|
|-------------------------------|--------------------------------------|
|-(9)-----9--9-9--9--9-----6----|-(6)-----6--6-----6--6--6S=9----------|
|-(7)-----7--7-7--7--7-----4----|-(4)-----4--4-----4--4--4S=7----------|
|-------------------------------|--------------------------------------|
|
|                                                                   ~~~~
|  E   E  E  E    E  E  E  S  S    E   E  E  E     E  E  E  S      +S
|-------------------------------|--------------------------------------|
|-14----------------------------|--------------------------------------|
|-----17-16-14---13-14-13h14p13-|-----13-------------------------------|
|-------------------------------|-16-----16----------------------------|
|-------------------------------|-----------16b19-16-15-14-14pb16r(14)-|
|-------------------------------|--------------------------------------|


                    C#5      F#5
    E   E +Q         E  E  E  E
|--------------------------------||
|--------------------------------||
|--------------------------------||
|---9---9-(9)S=======6--6----11--||
|---7---7-(7)S=======4--4-----9--||
|--------------------------------||
|
|~~~~~~
|  +E   E  E   E  a  E  E  E  E
|--------------------------------||
|----------------------------14--||
|-------------------------14-14--||
|-------------------------14-16--||
|-(14)-12-14-----12s14-16--------||
|-------------14-----------------||


  Gtr II
   +W            +W
|-------------|-------------------|
|-------------|-------------------|
|-------------|-------------------|
|-(11)--------|-(11)--------------|
|--(9)--------|--(9)--------------|
|-------------|-------------------|
|
| Gtr I
|  +W             W
|-------------|-------------------|
|-------------|-------------------|
|-------------|-------------------|
|-(11)--------|--11---------------|
|--(9)--------|--[9]--------------|
|-------------|-------------------|
|
| Gtr III
|                       ~~~~~~~
|  +W             Q.    E  +H
|-------------|-------------------|
|-(14)--------|--14----14-(14)----|
|-(14)--------|--14----14-(14)----|
|-(16)--------|--16----16-(16)----|
|-------------|-------------------|
|-------------|-------------------|


    Q        Q     H           H       E  Q.
|-------------------------|--------------12---------|
|-------------------------|-------------------------|
|-------------------------|-------------------------|
|-------------------------|-------------------------|
|---9\--------------------|-------------------------|
|-------------------------|-------------------------|
|
|                                    TPTP    TP   TP
|  +W                         +Q.    E Q     E.   S
|-------------------------|-------------------------|
|-------------------------|-------------------------|
|-------------------------|----------xsx------------|
|-(11)--------------------|--(11)----xsxs====xS===x-|
|-([9])-------------------|--([9])-----------xS===x-|
|-------------------------|-------------------------|
|
|  +E     Q.      +H          +H..              E
|-------------------------|-------------------------|
|-------------------------|--------------------11---|
|-(14)--[14]----([14])----|-([14])-------------11---|
|-------------------------|--------------------11---|
|-------------------------|-------------------------|
|-------------------------|-------------------------|


                 N.C.
    >
    W                         W
|---------------------------|-------------|
|--12-----------------------|-------------|
|---------------------------|-------------|
|---------------------------|-------------|
|---------------------------|-------------|
|---------------------------|-------------|
|
|   W                         H    Q  E E
|---------------------------|-------------|
|---------------------------|-----------x-|
|---------------------------|-----------x-|
|---------------------------|-----------x-|
|---------------------------|-------------|
|---------------------------|-------------|
|
|                |-3-|
|  +E   +Q.    E S S S E E    W
|---------------------------|-------------|
|-(11)-(11)\----------------|-------------|
|-(11)-(11)\-----------x----|-------------|
|-(11)-(11)\---------x---x\-|-------------|
|------------------x--------|-------------|
|----------------x----------|-------------|


                       |-3-| |--3--|
  Q  S S E E e S E S   Q q q q q   q
|----7h9p7s5-5-7---5-|---4-2-4-2---4----|
|--------------------|------------------|
|--------------------|------------------|
|--------------------|------------------|
|--------------------|------------------|
|--------------------|------------------|
|
|                                    PM
| Q  E   E H           H     Q   E   E
|--------------------|------------------|
|----x---------------|-----------x------|
|----x---------------|-----------x------|
|----x---------------|-----------x---9--|
|--------------------|------------------|
|--------------------|------------------|
|
| W                    W
|--------------------|------------------|
|--------------------|------------------|
|--------------------|------------------|
|--------------------|------------------|
|--------------------|------------------|
|--------------------|------------------|


                                   >
                    ~~~~~~~~~~~~~~~~~~~
     S   +S  Q.    +H             +W
|----4b5r(4)p2-----(2)--------|---(2)--------------------|
|-----------------------------|--------------------------|
|-----------------------------|--------------------------|
|-----------------------------|--------------------------|
|-----------------------------|--------------------------|
|-----------------------------|--------------------------|
|
|                   ~~~~~~~~~~~~~~~~~~~~~~~~~~~~~~~~~~~~
| a  H             +Q.     E      +Q.     E  +Q    +Q
|-----------------------------|--------------------------|
|-----------------------------|--------------------------|
|-9h11------------(11)---[11]-|-([11])---11-(11)--(11)\--|
|-----------------------------|--------------------------|
|-----------------------------|--------------------------|
|-----------------------------|--------------------------|


  W             H        H
|-------------|-------------------|
|-------------|--------/14--------|
|-------------|-------------------|
|-------------|-------------------|
|-------------|-------------------|
|-------------|-------------------|
|
|                              PM
| H    Q  E E   Q  E E   E E E E
|-------------|-------------------|
|-------------|-------------------|
|---------x-x-|----x-----x-x-x----|
|---------x-x-|----x-----x-x-x----|
|---------x-x-|----x-----x-x-x-9--|
|-------------|-------------------|


   E  Q.      +H           +W
|-14--------------------|---------------------|
|----14------(14)-------|-(14)----------------|
|-----------------------|---------------------|
|-----------------------|---------------------|
|-----------------------|---------------------|
|-----------------------|---------------------|
|
|          PM         PM           PM     PM|
|  E  E  E E   E  E E E     E  E E E  E E E E
|-----------------------|---------------------|
|-----------------------|---------------------|
|-11----------11--------|--11--------11-------|
|-----------------------|---------------------|
|-----9--x-9------9-x-9-|------9-9-9----9-9-9-|
|-----------------------|---------------------|


                                                 F#5
   Q    Q    +E   Q.         H         +E.   S E  E
|-14-------------14-------|-------------------------||
|------14---(14)----------|-14--------(14)----------||
|-------------------------|------------------8------||
|-------------------------|----------------------11-||
|-------------------------|-----------------------9-||
|-------------------------|-------------------------||
|
|         PM
|  E E  E E   E   E   E E    E E  E E   E  E   E  E
|-------------------------|-------------------------||
|-------------------------|-------------------------||
|-11---------11-----------|-11---11----11-----------||
|-------------------------|-------------------------||
|----9--7-9-------9--10-9-|----9----9------9---7--9-||
|-------------------------|-------------------------||


                        E5              A5        F#5
  Gtr II
    ~~~~    PM        PM     ~~~PM--------|
   +Q     E E    E  E E E   +E  E E E   E E E     +E
|-------------------------|---------------------------|
|-------------------------|---------------------------|
|-------------------------|---------------------------|
|-------------------------|---------------------------|
|--(9)----7-----[9]-----7-|-(7)-----------------------|
|-----------9-------8-9---|-----9-8-7---5-7-5b5.5-(5)-|
|
| Gtr I
|           PM|     PM|             PM|
|  +E   E E S S  E  E E E   +E  E E S S E E E      E
|-------------------------|---------------------------|
|-------------------------|---------------------------|
|-------------------------|---------------------------|
|-(11)-11---------------9-|-(9)-9---------------------|
|--(9)--9-7------9----6-7-|-(7)-7-------7-7--------4--|
|-----------9-9-----9-----|-------9-7-7-5-5--------2--|


        A5  F#5   A5        C#B5  E5      F#5
   PM-----------|         PM--|   PM----|
   E  E E E E E E E   +E  E E E E S S S S  E
|-------------------|-------------------------|
|-------------------|-------------------------|
|-------------------|-------------------------|
|-----------------2-|-(2)---------------------|
|-------0---------0-|-(0)-4-5-6-7----------9--|
|--2--2---2-2-2-4---|-------------7-7-7-9-----|
|
| +Q    Q   Q   E E   +E  E E E E E   E    E
|-------------------|-------------------------|
|-------------------|-------------------------|
|-------------------|-------------------------|
|-----------------2-|-(2)---6s4---9-------11--|
|-(4)---7---4-----0-|-(0)-0-4s2---7--------9--|
|-(2)---5---2---4---|-----------0-------------|


                        E5              A5        F#5
    ~~~~    PM        PM        PM--------|
   +Q     E E    E  E E E   +E  E E E   E E E     +E
|-------------------------|---------------------------|
|-------------------------|---------------------------|
|-------------------------|---------------------------|
|-------------------------|---------------------------|
|--(9)----7-----[9]-----7-|-(7)-----------------------|
|-----------9-------8-9---|-----9-8-7---5-7-5b5.5-(5)-|
|
|           PM|     PM|             PM|
|  +E   E E S S  E  E E E   +E  E E S S E E E      E
|-------------------------|---------------------------|
|-------------------------|---------------------------|
|-------------------------|---------------------------|
|-(11)-11---------------9-|-(9)-9---------------------|
|--(9)--9-7------9----6-7-|-(7)-7-------7-7--------4--|
|-----------9-9-----9-----|-------9-7-7-5-5--------2--|


        A5  F#5   A5        C#B5  E5      F#5
   PM-----------|         PM--|   PM----|
   E  E E E E E E E   +E  E E E E S S S S  E
|-------------------|-------------------------|
|-------------------|-------------------------|
|-------------------|-------------------------|
|-----------------2-|-(2)---------------------|
|-------0---------0-|-(0)-4-5-6-7----------9--|
|--2--2---2-2-2-4---|-------------7-7-7-9-----|
|
| +Q    Q   Q   E E   +E  E E E E E   E    E
|-------------------|-------------------------|
|-------------------|-------------------------|
|-------------------|-------------------------|
|-----------------2-|-(2)---6s4---9-------11--|
|-(4)---7---4-----0-|-(0)-0-4s2---7--------9--|
|-(2)---5---2---4---|-----------0-------------|


                        E5              A5        F#5
    ~~~~    PM        PM        PM--------|
   +Q     E E    E  E E E   +E  E E E   E E E     +E
|-------------------------|---------------------------|
|-------------------------|---------------------------|
|-------------------------|---------------------------|
|-------------------------|---------------------------|
|--(9)----7-----[9]-----7-|-(7)-----------------------|
|-----------9-------8-9---|-----9-8-7---5-7-5b5.5-(5)-|
|
|           PM|     PM|             PM|
|  +E   E E S S  E  E E E   +E  E E S S E E E      E
|-------------------------|---------------------------|
|-------------------------|---------------------------|
|-------------------------|---------------------------|
|-(11)-11---------------9-|-(9)-9---------------------|
|--(9)--9-7------9----6-7-|-(7)-7-------7-7--------4--|
|-----------9-9-----9-----|-------9-7-7-5-5--------2--|


        A5  F#5   A5        C#B5  E5      F#5
   PM-----------|         PM--|   PM----|
   E  E E E E E E E   +E  E E E E S S S S  E
|-------------------|-------------------------|
|-------------------|-------------------------|
|-------------------|-------------------------|
|-----------------2-|-(2)---------------------|
|-------0---------0-|-(0)-4-5-6-7----------9--|
|--2--2---2-2-2-4---|-------------7-7-7-9-----|
|
| +Q    Q   Q   E E   +E  E E E E E   E    E
|-------------------|-------------------------|
|-------------------|-------------------------|
|-------------------|-------------------------|
|-----------------2-|-(2)---6s4---9-------11--|
|-(4)---7---4-----0-|-(0)-0-4s2---7--------9--|
|-(2)---5---2---4---|-----------0-------------|


                        E5              A5        F#5
            PM        PM        PM--------|
   +Q     E E    E  E E E   +E  E E E   E E E     +E
|-------------------------|---------------------------|
|-------------------------|---------------------------|
|-------------------------|---------------------------|
|-------------------------|---------------------------|
|--(9)----7-----[9]-----7-|-(7)-----------------------|
|-----------9-------8-9---|-----9-8-7---5-7-5b5.5-(5)-|
|
|           PM|     PM|             PM|
|  +E   E E S S  E  E E E   +E  E E S S E E E      E
|-------------------------|---------------------------|
|-------------------------|---------------------------|
|-------------------------|---------------------------|
|-(11)-11---------------9-|-(9)-9---------------------|
|--(9)--9-7------9----6-7-|-(7)-7-------7-7--------4--|
|-----------9-9-----9-----|-------9-7-7-5-5--------2--|


        A5  F#5   A5        C#B5E5
   PM-----------|
   E  E E E E E E E   +E  E E E E E   +E  E
|-------------------|------------------------|
|-------------------|------------------------|
|-------------------|------------------------|
|-----------------2-|-(2)--------------------|
|-------0---------0-|-(0)-4-5-6-7-2b4-(2)p0--|
|--2--2---2-2-2-4---|------------------------|
|
| +Q    Q   Q   E E   +E  E E E H
|-------------------|------------------------|
|-------------------|------------------------|
|-------------------|------------------------|
|-----------------2-|-(2)---6s4--------------|
|-(4)---7---4-----0-|-(0)-0-4s2-2------------|
|-(2)---5---2---4---|-----------0------------|


  Slower Q=160
  F#5     E5 C#5   F#5 C#5  D#5E5   E
   Q   Q  Q   Q     Q  E. S Q  Q    +H..       +E
|----------------|----------------|-----------------|
|----------------|----------------|-----------------|
|----------------|----------------|-----------------|
|----------------|----------------|-----------------|
|-/9---9--7------|--9\-4--6-6--7--|-(7)--------(7)\-|
|-------------9--|----------------|-----------------|
|
|                                    TP
|  Q   Q  Q   Q     Q  Q    Q  Q     W
|----------------|----------------|-----------------|
|----------------|----------------|--9--------------|
|----------------|----------------|--7--------------|
|-----11--9------|-11S=6----8--9--|--7--------------|
|-/9---9--7--11--|--9S=4----6--7--|--7--------------|
|-------------9--|----------------|-----------------|


  B                 A                 E
   H..       +E      H.      +E   E    W
|-----------------|-----------------|-^0----|
|-----------------|-----------------|-^0----|
|-----------------|-----------------|-^1----|
|-----------------|-----------------|-^2----|
|-----------------|-----------------|-^2----|
|-/7---------(7)\-|-/5-------(5)\-0-|-^0----|
|
|  TP                TP
|  W                 W                 W
|-----------------|-----------------|-^0----|
|--4--------------|--2--------------|-^0----|
|--4--------------|--2--------------|-^1----|
|--4--------------|--2--------------|-^2----|
|--2--------------|--0--------------|-^2----|
|-----------------|-----------------|-^0----|


  +W                  +W
|-(0)--------------|--(0)------------------------|
|-(0)--------------|--(0)------------------------|
|-(1)--------------|--(1)------------------------|
|-(2)--------------|--(2)------------------------|
|-(2)--------------|--(2)------------------------|
|-(0)--------------|--(0)------------------------|
|
|                ~~~~~~~~~                     ~~~
| +H     Q   E.  S    +E   E E  E  S  S   E  E E
|-(0)--------------|-----------------------------|
|-(0)--------------|-----------------------------|
|-(1)-----------11-|-(11)-11-9----11-(9)-------9-|
|-(2)----2/--------|-----------11--------10-11---|
|-(2)--------------|-----------------------------|
|-(0)--------------|-----------------------------|


  +W                      +W
|-(0)-------------------|-(0)-----------|
|-(0)-------------------|-(0)-----------|
|-(1)-------------------|-(1)-----------|
|-(2)-------------------|-(2)-----------|
|-(2)-------------------|-(2)-----------|
|-(0)-------------------|-(0)-----------|
|
|~~~~~
|                 |-3-|
| +E   E  E E E E E E E    E  E E E H
|-----------------------|---------------|
|-----------------------|-----------9---|
|-(9)-------------------|---------9-----|
|-----11-10-9-7-9-7-9-7-|--5------------|
|-----------------------|-----7-7-------|
|-----------------------|---------------|


   W             +H         H
|--------------|-----------------------|
|--------------|-----------------------|
|--------------|-----------------------|
|--0tr2--------|-(0tr2)----------------|
|--0tr2--------|-(0tr2)-----2----------|
|--------------|-----------------------|
|
| +W              H         S E.  S E.
|--------------|--9--------12-9--12-9--|
|-(9)----------|-----------------------|
|--------------|-----------------------|
|--------------|-----------------------|
|--------------|-----------------------|
|--------------|-----------------------|


                       F#5
  +H     +Q     +Q      Q    Q       H
|--------------------|-------------------------*|
|--------------------|-------------------------*|
|--------------------|-------------------------*|
|--------------------|-------------------------*|
|-(2)----(2)b3r=(2)--|--4\---------------------*|
|--------------------|--2\---------------------*|
|
| +H     +H             Q    E  +E   Q    Q
|-(9)----(9)\--------|-------------------------*|
|--------------------|-------------------------*|
|--------------------|---------------x/--------*|
|--------------------|-11---11-(11)\-x/--------*|
|--------------------|--9----9--(9)\-x/--------*|
|--------------------|--9----9--(9)\-----[0]---*|

Tap to rate this tab
 
# A B C D E F G H I J K L M N O P Q R S T U V W X Y Z