Song name
# A B C D E F G H I J K L M N O P Q R S T U V W X Y Z

Guns N Roses - Patience tab

Guns N Roses - Patience Solo
Tabbed By: J.McCarthy

Standard Tuning (E A D G B E)

p = pull off
h = hammer on
/ = slide
b = bend



e|---7p6-7---7/9--7--------------------7p6-7----7/9--7--9/11----|
B|------------------------9/11----7-----------------------------|
G|--------------------------------------------------------------|
D|--------------------------------------------------------------|
A|--------------------------------------------------------------|
E|--------------------------------------------------------------|

e|---7p6-7---7/9--7---------------------------------9/11-9-9-------11/13--11--9h11p9---|
B|------------------------9/11--9----7h9p7-7-------------------------------------------|
G|-------------------------------------------------------------------------------------|
D|-------------------------------------------------------------------------------------|
A|-------------------------------------------------------------------------------------|
E|-------------------------------------------------------------------------------------|

e|-----------------------------------------------------------------------------------------------|
B|-----4--7------------------------------------------------4--7-------------------7---9b-p7------|
G|-6b--------6b--4--6---------4--6---------------------6b---------6b---4--6/8-----------------8~~|
D|------------------------6b----------6b--4------------------------------------------------------|
A|-----------------------------------------------------------------------------------------------|
E|-----------------------------------------------------------------------------------------------|

e|-----------------------------------------------------------------------------------------------|
B|-7--9---9b-9-7-9-7-----9b-7-9-7--7h9p7-----9/11--9-9~~-----------------------------------------|
G|------------------------------------------------------------------------6/8--6-----3p1---------|
D|----------------------------------------------------------------------------------------2h3/6--|
A|----------------------------------------------------------------------------------------------4|
E|-----------------------------------------------------------------------------------------------|

e|--------------------------------------------------------------|
B|---6b-6-------------------------------------6b-6--------------|
G|------------3p1-----------------------------------------------|
D|--------------------2h3---------------------------------------|
A|----------------------------4---------------------------------|
E|--------------------------------------------------------------|
Tap to rate this tab
 
# A B C D E F G H I J K L M N O P Q R S T U V W X Y Z