Song name
# A B C D E F G H I J K L M N O P Q R S T U V W X Y Z

Guns N Roses - Crash Diet tab

-------------------------------------------------------------------------------
			     Guns N' Roses - Crash Diet
-------------------------------------------------------------------------------
Tabbed by:Rockaholic
Email:Kristian_Tjelle@hotmail.com

Tuning:Eb

Intro

e|---------------------------------------------------------|
B|---------------------------------------------------------|
G|------0-------0---------0--------0-----------------------|
D|----4---4---4---4-----2---2----2---2---------------------|
A|--7-------5-------5-4--------3-------3-------------------|
E|---------------------------------------------------------| X4



Verse (With overdrive)

e|---------------------------------------------------------|
B|---------------------------------------------------------|
G|------0-------0---------0--------0-----------------------|
D|----4---4---4---4-----2---2----2---2---------------------|
A|--7-------5-------5-4--------3-------3-------------------|
E|---------------------------------------------------------| 
  PM-----------------PM----------------PM       



Chorus


e|----------------------------------------------------|
B|----------------------------------------------------|
G|-----9----------------------------------------------|
D|-----9--9-10--5--10--10--10--9--7--5--9-------------|
A|-----7--9-10--5--10--10--10--9--7--5--9-------------|
E|-0-0----7-8---3--8---8---8---7--5--3--7-------------|
   PM                  PM-----------PM


e|----------------------------------------------------|
B|----------------------------------------------------|
G|-----9----------------------------------------------|
D|-----9--9-10--5--10--10--10--9--7--5--9-------------|
A|-----7--9-10--5--10--10--10--9--7--5--9-------------|
E|-0-0----7-8---3--8---8---8---7--5--3--7-------------|
   PM                  PM-----------PM


e|------------------------|
B|------------------------|
G|------------------------|
D|--9-9-9-10-3------------|
A|--9-9-9-10-3------------|
E|--7-7-7-8--5------------|
    PM-PM



Solo

e|-----------------------------------------------------------------|
B|-----------------------------------------------------------------|
G|------9-----7------5------4-----------9-----7-------5-----4------|
D|------9-----7------5------4-----------9-----7-------5-----4------|
A|------7-----5------3------2-----------7-----5-------3-----2------|
E|--0-0---0-0----0-0----0-0---0-0-0-0-0---0-0----0-0----0-0--------|
    PM-------------------------PM--------------------------PM




PM-----------PM=Palm muting, the line shows where you shall start and where to quit
palm muting.


That's pretty much the whole song. The solo in itself I wasn't able to tab out so you'll
have to settle with the rhythm guitar part there.
Very underestimated song, should undoubtedly have been on one of the "Illusion" albums.
Tap to rate this tab
# A B C D E F G H I J K L M N O P Q R S T U V W X Y Z