Song name
# A B C D E F G H I J K L M N O P Q R S T U V W X Y Z

Guns N Roses - Sweet Child O Mine Acoustic tab

e|--------3---2---|      |--------3---2--|      |--------3---2----|
b|--3-------------|      |--3------------|      |--3--------------|
g|----2-0---2---2-|      |----2-0---2---2|      |----2-0---2---2--|
d|0---------------| x2   |---------------| x2   |-----------------| x2
a|--------------- |     |3--------------|      |-----------------|
e|----------------|      |---------------|      |3----------------|

e|--------3---2----|
b|--3--------------|
g|----2-0---2---2--|
d|0----------------| x2
a|-----------------|
e|-----------------|


e|5-3-2-| x2 |5-3-0-| x2 |3-3-3 x2  e|2~-|
b|----3-|    |----1-|    |----3----------|
g|----2-|    |----0-|    |---------------|
d|------|    |----2-|    |---------------|
a|------|    |----3-|    |----2----------|
e|------|    |------|    |----3----------|


My first tab hope you liked it.
Tap to rate this tab
 
# A B C D E F G H I J K L M N O P Q R S T U V W X Y Z