Song name
# A B C D E F G H I J K L M N O P Q R S T U V W X Y Z

Guns N Roses - Sweet Child O Mine tab

---
-------------------------------------------------------------------------------
---            SWEET CHILD O MINE - Guns N Roses
-------------------------------------------------------------------------------

Song Part: Introduction

Tabbed by: Seth

Tuning: Standard (EADGBe)

************************************

  D#

e|-------------------15------15-----------------------15-------14-----------|
B|--------------------------------------------------------------------------|
G|------14---12----------14------14-------14---12---------14-------14-------|
D|--12-----------12-------------------12-----------12-----------------------|
A|--------------------------------------------------------------------------|
E|--------------------------------------------------------------------------|


  C#


e|------------------13------13-----------------------13------12-------------|
B|--------------------------------------------------------------------------|
G|------12---10---------12------12-------12---10---------12-----12----------|
D|--10----------10-------------------10----------12-------------------------|
A|--------------------------------------------------------------------------|
E|--------------------------------------------------------------------------|


  G#


e|----------------------15------14-----------------------15-----14----------|
B|--------15---------------------------------15-----------------------------|
G|---12--------14---12------14-----14----12------14---12-----14-----14------|
D|--------------------------------------------------------------------------|
A|--------------------------------------------------------------------------|
E|--------------------------------------------------------------------------|


  D#


e|-------------------15------14------------------------15------14-----------|
B|--------------------------------------------------------------------------|
G|------14---12----------14------14-------14---12----------14------14-------|
D|--12-----------12-------------------12-----------12-----------------------|
A|--------------------------------------------------------------------------|
E|--------------------------------------------------------------------------|


************************************

NOTE-

Hello. This tab is probably not 100% correct as it is in different tuning as the
original. It's not the same note for note but still sounds very good even when played with
actual song. I play it like this because it's simpler.

Enjoy playing

-Seth
Tap to rate this tab
# A B C D E F G H I J K L M N O P Q R S T U V W X Y Z