Song name
# A B C D E F G H I J K L M N O P Q R S T U V W X Y Z

Guns N Roses - Dont Cry tab

Words And music by guns n roses tabbed bu Paul Toubia for comment paul_toubia99@hotmail.com

Tune:Eb-Ab-Db-Gb-Bb-Eb

Intro + Verse:

------|-----------0----------------1------------------3------------|
------|-------------1------------3---3------------------3----------|
------|--------2-------2------2--------2-----------0------0--------|
------|-----2------------0-0---------------------0-----------------|
------|--0-------------------------------0-----2-------------------|
----3-|--------------------------------------3---------------------|

--------------------------------------0-------------------1---------|
-----------------------------------------1-------------3-----3------|
-----------0-------0---------------2--------2-------2----------2----|
---------0-------0--------------2--------------0-0------------------|
----0--3-------2------3--2---0------------------------------------0-|
--------------------------------------------------------------------|

------------------------------|------------------------------------|
------------------------------|------------------------------------|
--------------0---------------|------------------------------------|
-----------0------------------|------2-----------------------------|
---------2--------------------|------0-----------------------------|
------3----------------2-3-4--|------------------------------------|
Tap to rate this tab
 
# A B C D E F G H I J K L M N O P Q R S T U V W X Y Z