Song name
# A B C D E F G H I J K L M N O P Q R S T U V W X Y Z

Guns N Roses - Yesterdays tab

E--------------0h2---------------------0h2--------|
B--------3-------------3--------3-----------------|
G-----2-----2-------2--------2-----2-----------0--|
D--0----------------------4-----------------0-----|
A-------------------------------------------------|
E-------------------------------------------------|

E--------2--0--------3----------------------------|
B-----3--------3--------3-----3-------------------|
G-----0-----------0--------0----------------------|
D-----2-------------------------------------------|
A--3----------------------------------------------|
E-------------------------------------------------|

E--2----------------------------------------------|
B--3----------------------------------------------|
G--2----------------------------------------------|
D--0----------------------------------------------|
A-------------------------------------------------|
E-------------------------------------------------|

E---------------------3----------------------------|
B--------1---------3-----0-------------------------|
G--------0-----------------------------------------|
D-----2--------------------------------------------|
A--3---------0-------------------------------------|
E---------------3----------------------------------|

E--------------0h2---------------------0h2--------|
B--------3-------------3--------3-----------------|
G-----2-----2-------2--------2-----2-----------0--|
D--0----------------------4-----------------0-----|
A-------------------------------------------------|
E-------------------------------------------------|

E--------2--0--------3----------------------------|
B-----3--------3--------3-----3-------------------|
G-----0-----------0--------0----------------------|
D-----2-------------------------------------------|
A--3----------------------------------------------|
E-------------------------------------------------|

E--------2----------------------------------------|
B--------3----------------------------------------|
G-----2-------------------------------------------|
D--0----------------------------------------------|
A-------------------------------------------------|
E-------------------------------------------------|

E--0-----3--3--3-----3--3----------------------------|
B--1-----3--3--3-----3--3----------------------------|
G--0-----0--0--0-----0--0----------------------------|
D--2-----0--0--0-----0--0----------------------------|
A--3-------------------------------------------------|
E--------3--3--3-----3--3----------------------------|

Tap to rate this tab
 
# A B C D E F G H I J K L M N O P Q R S T U V W X Y Z