Song name
# A B C D E F G H I J K L M N O P Q R S T U V W X Y Z

Guns N Roses - Think About You tab

----------------------------------------------------------------------------
			     Think About You by Guns N Roses
----------------------------------------------------------------------------
Tabbed by: Joshmilesadrian
Email: Jguthrie070@hotmail.com

Tuning: down a 1/2 step

This is just the first solo. nobody can seem to get it right so i'll put it here accurately.

e|----------------7----------------7-----------------5----------------5-----|
B|-----------7------------------7----------------5----------------5---------|
G|---9 ^(11)----------9 ^ (11)----------7 ^ (9)-----------7 ^ (9)-----------|
D|--------------------------------------------------------------------------|
A|--------------------------------------------------------------------------|
E|--------------------------------------------------------------------------|

e|---15---------------------------------------------------------------------|
B|--------15----------------------------------------------------------------|
G|------------14---12-------12-----------------12--11-----------------------|
D|----------------------14-----------------12-------------------------------|
A|-------------------------------12-h-14------------------------------------|
E|--------------------------------------------------------------------------|

e|-------------7------------7--------------7-----------------10-------------|
B|-------------7------------7--------------7-----------------10-------------|
G|---9 ^ (11)------9 ^ (11)-------9 ^ (11)--------12 ^ (14)-----------------|
D|--------------------------------------------------------------------------|
A|--------------------------------------------------------------------------|
E|--------------------------------------------------------------------------|

not hard at all to do.. good luck tho.
Tap to rate this tab
# A B C D E F G H I J K L M N O P Q R S T U V W X Y Z