Song name
# A B C D E F G H I J K L M N O P Q R S T U V W X Y Z

Guns N Roses - November Rain Live tab

Guitar Solo not 100% sure its right
(tuning might be half step down)

Eb--------------------8------------------------------------------8----------------8--|
Bb----8b----r8b---------8b-----r8p6-----8brb----r8b---------r8----------------------|
Gb--------------------------------------------------------------------------9br------|
Db-----------------------------------------------------------------------------------|
Ab-----------------------------------------------------------------------------------|
Eb-----------------------------------------------------------------------------------|


Eb---------------------------------------------------------|
Bb------------------------------------8--------------------|
Gb----9brb----9----7p5---7/9--------9\7----5---------------|
Db---------------------------------------------------------|
Ab---------------------------------------------------------|
Eb---------------------------------------------------------|

Eb--------------------8------------------------------------------8---8br----10b---|
Bb----8b----r8b---------8b-----r8p6-----8brb----r8b------------------------------|
Gb--------------------------------------------------------------------------------|
Db--------------------------------------------------------------------------------|
Ab--------------------------------------------------------------------------------|
Eb--------------------------------------------------------------------------------|

Eb----8h10p8---------8-------------13p12--------13p12--------13b---13------------|
Bb-----------------10---------11b---------------13-------------13-----------------|
Gb--------------------------------------------------------------------------------|
Db--------------------------------------------------------------------------------|
Ab--------------------------------------------------------------------------------|
Eb--------------------------------------------------------------------------------|

Eb----------12---13---12h13p12---------------12--13b---13p12--12b---12---20------|
Bb----15--------------------------------15---15------------------------------------|
Gb--------------------------------------------------------------------------------|
Db--------------------------------------------------------------------------------|
Ab--------------------------------------------------------------------------------|
Eb--------------------------------------------------------------------------------|

Eb----19--19--19\17---17--17\15---15--15\13---13--13\12---12------------------------|
Bb-----------------------------------------------------------------------------------|
Gb-----------------------------------------------------------------------------------|
Db-----------------------------------------------------------------------------------|
Ab-----------------------------------------------------------------------------------|
Eb-----------------------------------------------------------------------------------|

Eb----12h13p12----------12h13-------------|
Bb----------------------15-----------------|
Gb-----------------------------------------|
Db-----------------------------------------|
Ab-----------------------------------------|
Eb-----------------------------------------|

Eb----12--13--12h13p12---------------12----------------------|
Bb--------------------------------15--13----------13---------|
Gb-----------------------------------------------------------|
Db-----------------------------------------------------------|
Ab-----------------------------------------------------------|
Eb-----------------------------------------------------------|

Eb--------------------------------------------------------------------|
Bb----15h17p15--15--12--13---12h13p12---------------------------------|
Gb-------------------------------------------------------14p12--------|
Db--------------------------------------------------------------------|
Ab--------------------------------------------------------------------|
Eb--------------------------------------------------------------------|

Eb-------------------------------------------------------------------------------------|
Bb-----------10---------------------------------------------13---------------------13--|
Gb----12---------10---12p10\9------10h12p10\9--------10h12p10\9-----------------------|
Db-------------------------------------------------------------------------------------|
Ab-------------------------------------------------------------------------------------|
Eb-------------------------------------------------------------------------------------|

Solo2

Eb-----------------------------------------------------|
Bb---------------------------------------------18------|
Gb----7--9--10--12--14--16--17--19---------------------|
Db-----------------------------------------------------|
Ab-----------------------------------------------------|
Eb-----------------------------------------------------|

Eb-------------20--------------------20------------------19b---------|
Bb----20b----------r20------20------------18---17--------------------|
Gb-------------------------------------------------------------------|
Db-------------------------------------------------------------------|
Ab-------------------------------------------------------------------|
Eb-------------------------------------------------------------------|

Eb--------------------------------------17------------------------------------|
Bb----17brb---------17--18--20--------18---20--17--18--20--------------------|
Gb---------------19----------------------------------------------------------|
Db---------------------------------------------------------------------------|
Ab---------------------------------------------------------------------------|
Eb---------------------------------------------------------------------------|


Eb-----------------------------------------------------------------------|
Bb----17b--17-------------------------------------------20---------------|
Gb------------------19brbp17----19p17--------17-------17-----------------|
Db-----------------------------------------------19----------------------|
Ab-----------------------------------------------------------------------|
Eb-----------------------------------------------------------------------|

Eb------------------------------------------------------------------------|
Bb---------------------20-------------------------------20b----20---------|
Gb----17--------17-------17--17--17---------17----------------------------|
Db----------19-------------------------------19---------------------------|
Ab------------------------------------------------------------------------|
Eb------------------------------------------------------------------------|

Eb------------------------------------------------------|
Bb----18h20p18p17----18--17h18p17----------------------|
Gb------------------------------------------------------|
Db------------------------------------------------------|
Ab------------------------------------------------------|
Eb------------------------------------------------------|


Eb----------------------------------------------|
Bb---------17---------20------------------------|
Gb----19------19b--------r19----17-------------|
Db----------------------------------------------|
Ab----------------------------------------------|
Eb----------------------------------------------|


END RIFF

Eb--------19b----19----20b----20--19--20----15-----15--16----15p13--15-------------|
Bb------X-------------------------------------------------16------------------------|
Gb----X-----------------------------------------------------------------------------|
Db----------------------------------------------------------------------------------|
Ab----------------------------------------------------------------------------------|
Eb----------------------------------------------------------------------------------|


Eb--------19b----19----20b----20--19--20----15-----15---15b---13--14b---10--10br--|
Bb------X-------------------------------------------------16----------------------|
Gb----X---------------------------------------------------------------------------|
Db--------------------------------------------------------------------------------|
Ab--------------------------------------------------------------------------------|
Eb--------------------------------------------------------------------------------|


************************************

| /   slide up
| \   slide down
| h   hammer-on
| p   pull-off
| ~   vibrato
| +   harmonic
| x   Mute note
| b   Bend
| pb  Pre-bend
| br  Bend release
| pbr Pre-bend release
| brb Bend release bend

************************************
Tap to rate this tab
 
# A B C D E F G H I J K L M N O P Q R S T U V W X Y Z