Song name
# A B C D E F G H I J K L M N O P Q R S T U V W X Y Z

Guns N Roses - Blues tab

The Blues(solo)   -- Guns N' Roses
This is just the solo (its easy).
(based on the live performance) these guys dont sound much like the old gnr but
Robin Robin Finck's doing good buckethead on the otherhand sucks.
tabed by rishab koirala


Tablature 
----------------
L - tied note
g - grace note
h - hammer on
p - pull off
b - bend
br - bendRelease
pb - preBend
pbr - preBendRelease
brb - bendReleaseBend
S - shift slide
s - legato slide
/ -  slide into from below or out of upwards
\ -  slide into from above or out of downwards
~ - vibrato



Robin Finck

 
-----------------------|-------------------------|
------------15b--------|--15----15--------13-----|
-----------(14)--------|-------------------------|
-----------------------|-------------------------|
-----------------------|-------------------------|
-----------------------|-------------------------|


  
-------------------------------------|----------------------------|
--13s----12s--13----13s--12s-13---12-|--L-------------------------|
-------------------------------------|------14s--12----14b----L---|
-------------------------------------|----------------------------|
-------------------------------------|----------------------------|
-------------------------------------|----------------------------|


      
-----------------------------|-----------------------|-----------------------|
-----------------------------|-------------------10--|-----------------------|
--L---14pb------14brb--------|--L--------12----------|--12s----10------------|
-----------------------------|-----------------------|-----------------------|
-----------------------------|-----------------------|-----------------------|
-----------------------------|-----------------------|-----------------------|


  
--------------------------------|-----------------------------|
----------------------------10--|--10-------------------------|
--12g10--10s--12------12--------|---------12----12--------14--|
--------------------------------|---------------------12------|
--------------------------------|-----------------------------|
--------------------------------|-----------------------------|


                 |                             
    
----------------------------------|--------------------------|
----------------------15----17----|--17b--------17brb--------|
--L--14s--16----16----------------|--------------------------|
----------------------------------|--------------------------|
----------------------------------|--------------------------|
----------------------------------|--------------------------|



--------------------------|-----------------------------|
--L----15--------(15)\----|-----------------------------|
--------------------------|-------17b----17p--16----17--|
--------------------------|-----------------------------|
--------------------------|-----------------------------|
--------------------------|-----------------------------|


 
----------------------------|------------------------------|
----------------------------|------------------------------|
-----16----12------14b------|--L---14pb------14br------12--|
---------------12-----------|------------------------------|
----------------------------|------------------------------|
----------------------------|------------------------------|


  
-----------------------------|--11--------11p-10p-8-----------13--|
-----------------------------|----------------------11p-10p-8-----|
---L----14-------------------|------------------------------------|
--------------14------(14)\--|------------------------------------|
-----------------------------|------------------------------------|
-----------------------------|------------------------------------|


  
--L------13p-11p-10------------15----|---L-------------17--18--17h-18h-|
--------------------13p-11p-10-------|------------/20------------------|
-------------------------------------|---------------------------------|
-------------------------------------|---------------------------------|
-------------------------------------|---------------------------------|
-------------------------------------|---------------------------------|

 
--17-----------------------17-18----17-18-20-22-|--22-----------22b------|
------20-18-17----17-18-20-------20-------------|------------------------|
---------------19-------------------------------|------------------------|
------------------------------------------------|------------------------|
------------------------------------------------|------------------------|
------------------------------------------------|------------------------|



--L------22----20----20b--|--L------18~--------18\--|
--------------------------|-------------------------|
--------------------------|-------------------------|
--------------------------|-------------------------|
--------------------------|-------------------------|
--------------------------|-------------------------|


                                       
    
-------22----18----17--------17--|--18-------------------|
-------------------------20------|----------------20b----|
---------------------------------|-----------------------|
---------------------------------|-----------------------|
---------------------------------|-----------------------|
---------------------------------|-----------------------|


 
-------------------------------12----|--13---------------------|
--L----15----------13----15----------|-------------------------|
-------------12----------------------|-----------------10--12--|
-------------------------------------|-------------------------|
-------------------------------------|-------------------------|
-------------------------------------|-------------------------|


  
---------------------|--------------------13-12-|
---------------------|--------------------------|
---------------------|----------------10--------|
--12b----------------|--L-----------------------|
---------------------|--------------------------|
---------------------|--------------------------|


 
--10---------------------------------------|-------/19------------------------|
-----13-12-10------------------------------|-------------20-------------------|
--------------12-10-----------------10--9--|----------------------------------|
--------------------12-10------------------|----------------------------------|
--------------------------12-10--L---------|----------------------------------|
--------------------------------10---------|----------------------------------|


 




Tap to rate this tab
# A B C D E F G H I J K L M N O P Q R S T U V W X Y Z