Guitaretab - guitar tabs
Song name
# A B C D E F G H I J K L M N O P Q R S T U V W X Y Z

Guns N Roses - Down On The Farm tab

14b(16) means 14th fret, and bending up to the 16th

h = hammer on
r = release

eb-|-----------|-----------|-------------------------|
Bb-|--------15-|--------15-|--------15----15h--------|
Gb-|-14b(16)---|-14b(16)---|-14b(16)---14-----16hr14-|
Db-|-----------|-----------|-------------------------|
Ab-|-----------|-----------|-------------------------|
Eb-|-----------|-----------|-------------------------|

eb-|-----------|-----------|--------------------|
Bb-|-----------|-----------|--------------------|
Gb-|--------14-|--------14-|--------14----------|
Db-|-14b(15)---|-14b(15)---|-14b(15)--14--14-12-|
Ab-|-----------|-----------|--------------------|
Eb-|-----------|-----------|--------------------|
[ Tab from: http://www.guitaretab.com/g/guns-n-roses/7585.html ]
eb-|-----------|-----------|---------------------|
Bb-|--------22-|--------22-|--------22-----------|
Gb-|-21b(23)---|-21b(23)---|-21b(23)--21b(23)-21-|
Db-|-----------|-----------|---------------------|
Ab-|-----------|-----------|---------------------|
Eb-|-----------|-----------|---------------------|

eb-|-----------|-----------|----------------------|
Bb-|-----------|-----------|----------------------|
Gb-|--------14-|--------14-|--------14------------|
Db-|-14b(15)---|-14b(15)---|-14b(15)---14b(15-14)-|
Ab-|-----------|-----------|----------------------|
Eb-|-----------|-----------|----------------------|



eb-|--------------|
Bb-|--22b(24)hold-|
Gb-|--------------|
Db-|--------------|
Ab-|--------------|
Eb-|--------------|  

or like this

eb-|--18b(19)hold-|
Bb-|--------------|
Gb-|--------------|
Db-|--------------|
Ab-|--------------|
Eb-|--------------|


whatever:P have fun
version 2 for the rest of the song looks good to me:)


myspace.com/nickofzo
Related for Down On The Farm tab
Down On The Farm chords by Guns N Roses