Song name
# A B C D E F G H I J K L M N O P Q R S T U V W X Y Z

Guns N Roses - Hair Of The Dog tab

This is not the cool version.
It's just a bit slower and without the wild part at the end, but it is great NEway.


b = Bend a little bit
~~~~ = vibrato



Intro/verse: (0:07)

|----------------------------------------|
|----------------------------------------|
|----------------------------------------|
|--------------2~~~---5b--2--0--2--------|x6
|------------2---------------------------|
|-0--0-3-4-------------------------------|

(0:29)
|----------------------------------------|
|----------------------------------------|
|--------------2~~~---5b--2--0--2--------| 
|------------2---------------------------|
|-0--0-3-4-------------------------------|
|----------------------------------------|

|----------------------------------------|
|----------------------------------------|
|--------------2~~~---5b--2--0-----------| 
|------------2------------------2--------|
|-0--0-3-4-------------------------------|
|----------------------------------------|

Pre-chorus: (0:37)
|----------------------------------------|
|----------------------------------------|
|----------------------------------------|
|--------------2~~~---5b--2--0--2--------|x2
|------------2---------------------------|
|-0--0-3-4-------------------------------|



Chorus: (0:44)
|---------------------------------------|
|---------------------------------------|
|--5----------7------7-7--9-9-----------|
|--7--5--7----7------7-7--9-9-----------|x2
|--7--5--7----5------5-5--7-7-----------|
|-----3--5------------------------------|

Now you're messin' with a... son of a b****


Chords During "Solo": (1:59)

|----------------------------------------|
|----------------------------------------|
|----------------------------------------|x2
|----------------------------------------|
|----------------------------------------|
|----------------------------------------|

|---------------------------------------|
|---------------------------------------|
|--7--------------7---------------------|
|--7--5-5--7-7----7---------------------|
|--5--5-5--7-7----5---------------------|
|-----3-3--5-5--------------------------|

|---------------------------------------|
|---------------------------------------|
|--7--------------7-----9--7--5---------|
|--7--5-5--7-7----7-----9--7--5---------|
|--5--5-5--7-7----5-----7--5--3---------|
|-----3-3--5-5--------------------------|



"Solo": (1:59)

|----------------------------------------|
|----------------------------------------|
|----------------------------------------|
|----------------------------------------|x10
|-7-7-7-7-7-5--------5~~~----------------|
|-------------7-5-3-5--------------------|

Outro: (2:36)
|----------------------------------------|
|----------------------------------------|
|----------------------------------------|
|--------------2~~~---5b--2--0--2--------|x2
|------------2---------------------------|
|-0--0-3-4-------------------------------|

|---------------------------------------|
|---------------------------------------|
|--5----------7------7-7--9-9-----------|
|--7--5--7----7------7-7--9-9-----------|Repeat "ad libitum"
|--7--5--7----5------5-5--7-7-----------|
|-----3--5------------------------------|

Now you're messin' with a... son of a b****


Yeah my first published tab. I'm so proud of my self.. or??
Well, i hope it's getting published, cuz it's correct all the way.
Tap to rate this tab
# A B C D E F G H I J K L M N O P Q R S T U V W X Y Z