Guitaretab - guitar tabs
Song name
# A B C D E F G H I J K L M N O P Q R S T U V W X Y Z

Guns N Roses - Knockin On Heavens Door tab

Guns N Roses
Knockin on Heavens Door(Bob Dylan original recorder)
Use Your Illusion (rack version)

Intro
g                        d              g             d
e------3-------3--------2-0----------3-------3--------2-0---------------------|
b--3-----3---3--------3-----3---3------3---3--------3-------------------------|
g--0-------0--------2---------2----------0--------2---------------------------|
d--0--------------0-----------------------------0-----------------------------|
a-----------------------------------------------------------------------------|
e--3--------------------------------------------------------------------------|

e------------------------------------------------------------------------|
b------------------------------------------------------------------------|
g----------------------7--------------------------5----------------------|
d----5-----------------7--------------------------5----------------------|
a----5-----------------5--------------------------3----------------------|
e----3-------------------------------------------------------------------|


e------------------------------------------------------------------------|
b------------------------------------------------------------------------|
g----------------------7--------------------------5----------------------|
d---5------------------7--------------------------5----------------------|
a---5------------------5--------------------------3----------------------|
e---3--------------------------------------------------------------------|
1st verse g           d             am
e----3-------3--------2-0------------------------0-------------------------------|
b-3----3---3--------3-----3---0----1----0-1-----------1--------------------------|
g-0------0--------2---------2------2--2-----2-------2---2-----0---0--------------|
d-0-------------0------------------2----------2---2-------0-2---2----------------|
a----------------------------------0---------------------------------------------|
e-3------------------------------------------------------------------------------|
line 2 g            d                c
e-----3--------3-------2-0----------------------------------------------------|
b-3-----3----3-------3-----3---0----1----1--------------1---------------------|
g-0--------0-------2---------2------0--0---0----------0---0-------------------|
d-0--------------0------------------2--------2---2-----------2-0--------------|
a-----------------------------------3----------3---3--------------------------|
e-3---------------------------------------------------------------------------|
line3
Its getting dark.....g d        am
e----3-------------2-0------------------------3------2-2--------------------------|
b-3----3---3--3--------3---0----1----0-1--------1--------1-0----------------------|
g-0------0----2----------2------2--2-----2--------2-------------------------------|
d-0-----------0-0---------------2----------2--------------------------------------|
a-------------------------------0-------------------------------------------------|
e-3-------------------------------------------------------------------------------|
last line g   d                    c
e----3-------------2-0-----------------------------------------------------------|
b-3----3---3-3---3------3---0-----1----1--------1-------1------------------------|
g-0------0---2------------2-------0--0--------0-------0--------------------------|
d-0----------0--------------------2---------2-------2----------------------------|
a---------------------------------3-------3-------3------------------------------|
e-3------------------------------------------------------------------------------|

Chorus line 1
e------------------------------------------------------------------------|
b------------------------------------------------------------------------|
g--------------------7-----------------------5---------------------------|
d---5----------------7-----------------------5---------------------------|
a---5----------------5-----------------------3---------------------------|
e---3--------------------------------------------------------------------|

e--------------------------------------------------------------------|
b--------------------------------------------------------------------|
g-------------------7------------------------5-----------------------|
d--5----------------7------------------------5-----------------------|
a--5----------------5------------------------3-----------------------|
e--3-----------------------------------------------------------------|

e---------------------------------------------------------------------|
b---------------------------------------------------------------------|
g--------------------7-----------------------5------------------------|
d---5----------------7-----------------------5------------------------|
a---5----------------5-----------------------3------------------------|
e---3-----------------------------------------------------------------|


e---------------------------------------------------------------------|
b---------------------------------------------------------------------|
g--------------------7-----------------------5------------------------|
d---5----------------7-----------------------5------------------------|
a---5----------------5-----------------------3------------------------|
e---3-----------------------------------------------------------------|
[ Tab from: http://www.guitaretab.com/g/guns-n-roses/7592.html ]
solo 1
e--------------------------------------------------------------------|
b---------------------15---------------------------------------------|
g--12--14--12--14----------14--12--12--------------------------------|
d--------------------------------------------------------------------|
a--------------------------------------------------------------------|
e--------------------------------------------------------------------|

e--------------------------------------------------------------------|
b--15/17-----15------13--12--13---------------13--12----13--12-------|
g---------------------------------------------------------------14---|
d--------------------------------------------------------------------|
a--------------------------------------------------------------------|
e--------------------------------------------------------------------|

e----------------15--17--17---------17-------15----------------------|
b-12-----15/17-------------------------------------------------------|
g--------------------------------------------------------------------|
d--------------------------------------------------------------------|
a--------------------------------------------------------------------|
e--------------------------------------------------------------------|

e--20---19---20--19--20--20----20------------------------------------|
b-----------------------------------17-------------------------------|
g--------------------------------------------19----------------------|
d----------------------------------------------------19--------------|
a--------------------------------------------------------------------|
e--------------------------------------------------------------------|

  g           d                      am
e----3--------2----2-0-------------------------------0---------------|
b-3----3---3--3--------3-----0-------1----0-1------------1---1-0-----|
g-0------0----2--2-------2-----------2--2-----2--------2---2-----2---|
d-0-----------0----------------------2----------2--------------------|
a------------------------------------0------------0------------------|
e-3------------------------------------------------------------------|
   g            d                     c
e-----3----------------2-0-------------------------------------------|
b--3----3---3---3---3------3----0-----1----1-------------------------|
g--0------0-----2------------2--------0--0---0----0-----0-----0------|
d--0------------0---------------------2-------------0-2---0-2---0-2--|
a-------------------------------------3--------3---------------------|
e--3-----------------------------------------------------------------|
    g              d                  am
e-------3----------------3-2-0-----------------------0-----------------|
b--3------2---3--3----3---------3--0---1----0-1-------------1---1-0----|
g--0--------0----2---------------------2--2-----2---------2---2----2-0-|
d--0-------------0---------------------2----------2-----2--------------|
a--------------------------------------0-------------------------------|
e--3-------------------------------------------------------------------|
    g           d                     c
e------3-----------------2-0-----------------------------------------|
b--3-----3---3--3------------3---0-----1----1-------1------1---------|
g--0-------0----2-----2--------2-------0--0-------0------0-----------|
d--0------------0----------------------2--------2------2-------------|
a--------------------------------------3------3------3---------------|
e--3-----------------------------------------------------------------|

chorus

solo 2

e--------------------------------------------------------------------|
b--19b-19--17--19--17--17-20--17---20---17---15------17--15--17------|
g--------------------------------------------------------------------|
d------------------------------------------------17------------------|
a--------------------------------------------------------------------|
e--------------------------------------------------------------------|


e------------------------------------------------16-----18--18--16--|
b---------------15---17----------------------13-----16--------------|
g-----------------------------------------13------------------------|
d--19--17--19--------------19--19--17-------------------------------|
a-------------------------------------------------------------------|
e-------------------------------------------------------------------|

e--16--18--16--16--20--19-20-22b-20-19-20-22b-20-19-20-22b-22b-22b--|
b-------------------------------------------------------------------|
g-------------------------------------------------------------------|
d-------------------------------------------------------------------|
a-------------------------------------------------------------------|
e-------------------------------------------------------------------|

e-20-22b------------------------------------------------------------|
b---------20-22-20-22-22b-20-22-20-20-20-19-17-19-17-17--20-17-17---|
g-------------------------------------------------------------------|
d-------------------------------------------------------------------|
a-------------------------------------------------------------------|
e-------------------------------------------------------------------|

e-------------------------------------------------------------------|
b---20-17--17-15-12-------------------------------------------------|
g--------------------12--11--11--9-7--5/4---------------------------|
d-------------------------------------------------------------------|
a-------------------------------------------------------------------|
e-------------------------------------------------------------------|

chorus last time

chorus and solos are with distortion verses are clean
this is the main guitar you here in the song
Related for Knockin On Heavens Door tab
×
Best way to learn
"Knockin On Heavens Door"