Guitaretab - guitar tabs
Song name
# A B C D E F G H I J K L M N O P Q R S T U V W X Y Z

Guns N Roses - You Could Be Mine tab

Intro
  Q=152
  N.C.
 4/4
  Gtr I
    PM---------------------------------------------------------------------
    S    S    S    S    S    S    S    S   S   S   S   S   S   S   S   S
|-------------------------------------------------------------------------|
|-------------------------------------------------------------------------|
|-------------------------------------------------------------------------|
|-------------------------------------------------------------------------|
|-------------------------------------------------------------------------|
|-<12>-<12>-<12>-<12>-<12>-<12>-<12>-<12>-<9>-<9>-<9>-<9>-<9>-<9>-<7>-<7>-|


 -------------------------------------------------------------|
   S   S   S   S   S   S   S   S   S   S   S   S   S   S   S   S    H    Q   Q
|-----------------------------------------------------------------|-------------|
|-----------------------------------------------------------------|-------------|
|-----------------------------------------------------------------|-------------|
|-----------------------------------------------------------------|------x/-----|
|-----------------------------------------------------------------|------x/-----|
|-<7>-<7>-<7>-<7>-<7>-<7>-<7>-<7>-<5>-<5>-<4>-<4>-<3>-<3>-<3>-<3>-|-------------|


  N.C(F#m)
  Gtr II
                  >       <
                                                  ~~~~
  Q   H.         +H      +H        +W            +W
|----14-------|-(14)----(14)----|-(14)--------|-(14)----|
|----14-------|-(14)----(14)----|-(14)--------|-(14)----|
|----14-------|-(14)----(14)----|-(14)--------|-(14)----|
|-------------|-----------------|-------------|---------|
|-------------|-----------------|-------------|---------|
|-------------|-----------------|-------------|---------|
|
| Gtr I
|                                                 <
|                                                 ~~~~
| W               W                 W             W
|-------------|-----------------|-------------|---------|
|-------------|-----------------|-------------|---------|
|-------------|-----------------|-------------|---2-----|
|-------------|-----------------|-------------|---2-----|
|-------------|-----------------|-------------|---------|
|-------------|-----------------|-------------|---------|


  N.C.
   ~~~~~~~~~~~~~~~~~~~~~~~~~~~~~~~~~~~~~~~~~~~~~~~~~~~~~~~~~~~~~~~~~
   S    S   S   S   S   S   S   S   S   S   S   S   S   S   S   S
|-14--(17)-14-(17)-14-(17)-14-(17)-14-(17)-14-(17)-14-(17)-14-(17)-|
|------------------------------------------------------------------|
|------------------------------------------------------------------|
|------------------------------------------------------------------|
|------------------------------------------------------------------|
|------------------------------------------------------------------|
|
|  ~~~~~~~~~~~~~~~~~~~~~~~~~~~~~~~~~~~~~~~~~~~~~~~~~~~~~~~~~~~~~~~~~
| +W
|------------------------------------------------------------------|
|------------------------------------------------------------------|
|-(2)--------------------------------------------------------------|
|-(2)--------------------------------------------------------------|
|------------------------------------------------------------------|
|------------------------------------------------------------------|


 ~~~~~~~~~~~~~~~~~~~~~~~~~~~~~~~~~~
   S    S   S   S   S   S   S   S    H         +H..         E
|-14--(17)-14-(17)-14-(17)-14-(17)---------|--------------[14]-|
|----------------------------------[14]----|-([14])------------|
|------------------------------------------|-------------------|
|------------------------------------------|-------------------|
|------------------------------------------|-------------------|
|------------------------------------------|-------------------|
|
|~~~~~~~~~~~~~~~~~~~~~~~~~~~~~~~~~~~~~~~~~~~~~~~~~~~
|  W                                           +W
|------------------------------------------|-------------------|
|------------------------------------------|-------------------|
|-[2]--------------------------------------|--([2])------------|
|------------------------------------------|-------------------|
|------------------------------------------|-------------------|
|------------------------------------------|-------------------|


  N.C.
  Gtr III
    W                  W               W
|-----------------|---------------|----------------------------------|
|-----------------|---------------|----------------------------------|
|-----------------|---------------|----------------------------------|
|-----------------|---------------|----------------------------------|
|-----------------|---------------|----------------------------------|
|-----------------|---------------|----------------------------------|
|
| Gtr II
|   W                 +W              +E     Q     E    +Q.        E
|-----------------|---------------|--------[14]-------------------14-|
|-----------------|---------------|-------------------------------14-|
|-[14]------------|-([14])--------|-([14])-------[14]-([14])------14-|
|-----------------|---------------|----------------------------------|
|-----------------|---------------|----------------------------------|
|-----------------|---------------|----------------------------------|
|
| Gtr I
|  +Q     H.          +W              +H                +E    Q.
|-----------------|---------------|----------------------------------|
|--------[2]------|--([2])--------|--([2])-------------([2])-[2]-----|
|-([2])-----------|---------------|----------------------------------|
|-----------------|---------------|----------------------------------|
|-----------------|---------------|----------------------------------|
|-----------------|---------------|----------------------------------|


    H              E   E           +S   S  E
|--------------------------------------------------|
|--------------------------------------------------|
|---------------------16b18r======(16)p14-14-------|
|--------------------------------------------------|
|--------------------------------------------------|
|--------------------------------------------------|
|
|                                   ~~~~~
|  +E     E   E E  E   E            E.          S
|-(14)---------------------------------------------|
|-(14)----------------16-----------16----------14--|
|-(14)----------------16-----------16----------14--|
|------------16s9s20-------------------------------|
|-------(14)---------------------------------------|
|--------------------------------------------------|
|
|             TP   TP
|                                   |---3----|
|  +Q         Q    E.       S       Q        E
|--------------------------------------------------|
|-([2])---------------------4b4.5---4p=======2-----|
|---------------------------4b4.5---4p=======2-----|
|-------------xs===x\------------------------------|
|--------------------------------------------------|
|--------------------------------------------------|


  N.C.
   E  Q.    +H        +H      +E   S        +S    +S   S  E
|------------------|-------------------------------------------|
|----14----(14)----|-(14)----(14)-14b14.5==(14)r=(14)----------|
|----14----(14)----|-(14)----(14)-14b14.5==(14)r=(14)p12-12----|
|-16-14----(14)----|-(14)----(14)------------------------------|
|------------------|-------------------------------------------|
|------------------|-------------------------------------------|
|
|  E  Q.    +H        +H      +E.            S    +E.        S
|----14----(14)----|-(14)----(14)------------------------------|
|----14----(14)----|-(14)----(14)-----------14---(14)p======12-|
|----14----(14)----|-(14)----(14)-----------14---(14)p======12-|
|-16---------------|-------------------------------------------|
|------------------|-------------------------------------------|
|------------------|-------------------------------------------|
|
|  E  Q.    +H        +H      +E   S         S    +E      E
|------------------|-------------------------------------------|
|-----2-----(2)----|--(2)-----(2)------------2b3r=(2)p====0----|
|-----2-----(2)----|--(2)-----(2)--x---------2b3r=(2)p====0----|
|--4--2-----(2)----|--(2)-----(2)--x---------------------------|
|------------------|-------------------------------------------|
|------------------|-------------------------------------------|


                                    PM
   E  Q.    +H        +Q    +Q      E   S        +S   +E   E
|------------------|-------------------------------------------|
|----12----(12)----|-(12)--(12)\--------------------------14---|
|----12----(12)----|-(12)--(12)\---13--16b18====(16)r(16)-14---|
|-14---------------|-------------------------------------------|
|------------------|-------------------------------------------|
|------------------|-------------------------------------------|
|
|     ~~~~~~~~~~~~~~~~~~~~
|  E  Q.    +H        +H           +E   S        +S   +E   E
|------------------|-------------------------------------------|
|----12----(12)----|-(12)---------(12)-16b16.5==(16)r(16)p14---|
|----12----(12)----|-(12)---------(12)-16b17====(16)r(16)p14---|
|-14---------------|-------------------------------------------|
|------------------|-------------------------------------------|
|------------------|-------------------------------------------|
|
|            ~~~~~~~~~~~~~
|  E  Q.    +H        +H           +E   S        +S   +E   S S
|-----3-----(3)----|--(3)----------(3)-------------------------|
|-----3-----(3)----|--(3)----------(3)--4b5======(4)r=(4)--4p2-|
|------------------|--------------------4b5======(4)r=(4)--4p2-|
|--2---------------|-------------------------------------------|
|------------------|-------------------------------------------|
|------------------|-------------------------------------------|


  N.C.
   E  Q.    +H        +E   +E   E E   E   S        +S   +E        E
|------------------|--------------------------------------------------|
|----14----(14)----|-(14)-(14)\----------14b14.5==(14)r(14)-----------|
|----14----(14)----|-(14)-(14)\---x---x--14b14.5==(14)r(14)------12h==|
|-16---------------|--------------------------------------------------|
|------------------|--------------------------------------------------|
|------------------|--------------------------------------------------|
|
|  E  Q.    +H        +H             +E   S        +S   +E        E
|----14----(14)----|-(14)-----------(14)------------------------------|
|----14----(14)----|-(14)-----------(14)-14b14.5==(14)r(14)p=====12---|
|----14----(14)----|-(14)-----------(14)-14b15====(14)r(14)p=====12---|
|-16---------------|--------------------------------------------------|
|------------------|--------------------------------------------------|
|------------------|--------------------------------------------------|
|
|  E  Q.    +H        +H             +E   E              S   +E     S
|------------------|--------------------------------------------------|
|-----2-----(2)----|--(2)------------(2)--2--------------2b3r(2)------|
|-----2-----(2)----|--(2)------------(2)--2--------------2b3r(2)p===0-|
|--4--2-----(2)----|--(2)------------(2)------------------------------|
|------------------|--------------------------------------------------|
|------------------|--------------------------------------------------|


   E  Q.    +H         +E   E Q   E     E         +E.  S
|-------------------|------------------------------------|
|----12----(12)-----|-(12)\------------16b17r====(16)p14-|
|-14-12----(12)-----|-(12)\-------x----------------------|
|-------------------|------------------------------------|
|-------------------|------------------------------------|
|-------------------|------------------------------------|
|
|     ~~~~~~~~~~~~~~~~~~~~~~                       ~~~~~
|  E  Q.    +H         +H         E.          S   +E.  S
|-------------------|------------------------------------|
|----12----(12)-----|-(12)--------x\---------16--(16)----|
|----12----(12)-----|-(12)--------x\---------16--(16)p14-|
|-14----------------|------------------------------------|
|-------------------|------------------------------------|
|-------------------|------------------------------------|
|
|                 ~~~~~~~~~~
|  E  Q.     Q.   E    +H        +S  S  S    +S   +E.  S
|-----3------3----3-|--(3)-------(3)---------------------|
|-----3------3----3-|--(3)-------(3)-x--4b5==(4)r=(4)----|
|-------------------|----------------x--4b5==(4)r=(4)--2-|
|--2----------------|------------------------------------|
|-------------------|------------------------------------|
|-------------------|------------------------------------|


  N.C.
   E  Q          E  E  S      +S   +S   S  E       E  Q.                  E  S        +S   +S   S  E
|-----------------------------------------------|-------------------------------------------------------|
|----14-----------------------------------------|---------------------------14b14.5==(14)r(14)p12-------|
|----14---------------16b18==(16)r(16)p14-14----|----14-------------------x-14b14.5==(14)r(14)p12-12----|
|-16-14-----------------------------------------|-16-14-------------------------------------------------|
|-----------------------------------------------|-------------------------------------------------------|
|-----------------------------------------------|-------------------------------------------------------|
|
|                                   ~~~~~                                    ~~~~~~~~~~~~~~~~~~~
|  E  E  E       E  E  E           +E.        S    E  E   +E        +E    E  E             +E.        S
|-----------------------------------------------|-------------------------------------------------------|
|----14--x------14--x-16----------(16)p======14-|----14--(14)b14.5-(14)-----14------------(14)p======12-|
|----14--x------14--x-16----------(16)p======14-|----14--(14)b15---(14)-----14------------(14)p======12-|
|-16--------------------------------------------|-16----------------------------------------------------|
|-----------------------------------------------|-------------------------------------------------------|
|-----------------------------------------------|-------------------------------------------------------|
|
|                   PM
|  E  E +E      +E  E  E           +E.        S    E  Q.                a E  E             +E.        S
|-----------------------------------------------|-------------------------------------------------------|
|-----2-(2)b2.5-(2)----4b5r========(4)----------|-----2----------------------2b3r==========(2)----------|
|-----2-(2)b3---(2)-3--4b5r========(4)p=======2-|-----2-------------------2--2b3r==========(2)p=======0-|
|--4--------------------------------------------|--4--2-----------------x-------------------------------|
|-----------------------------------------------|-------------------------------------------------------|
|-----------------------------------------------|-------------------------------------------------------|


   E  Q              E  E  E         +E   E       E  Q              E  E  S        +S   +E   E
|----------------------------------------------|-------------------------------------------------|
|----12----------------------------------------|-------------------------------------------------|
|----12--------------x--x-14b16r====(14)-12----|----12\------------------16b18====(16)r(16)p14---|
|-14-----------------x--x--x-------------------|-14----------------------------------------------|
|----------------------------------------------|-------------------------------------------------|
|----------------------------------------------|-------------------------------------------------|
|
|                          ~~~~~~~~~~~~~~~
|  E  E   +E        +E  E  E         +E.     S    E  E   +E        +E  E  S        +S   +E   E
|----------------------------------------------|-------------------------------------------------|
|----12--(12)b12.5-(12)---14--------(14)p===12-|----12--(12)b12.5-(12)---16b16.5==(16)r(16)p14---|
|----12--(12)b13---(12)---14--------(14)p===12-|----12--(12)b12.5-(12)---16b17====(16)r(16)p14---|
|-14-------------------------------------------|-14----------------------------------------------|
|----------------------------------------------|-------------------------------------------------|
|----------------------------------------------|-------------------------------------------------|
|
|  E  Q.                E  S    +S   +E.     S    E  Q.                E  E             +E.    S
|-----3----------------------------------------|-----3-------------------------------------------|
|-----3--------------------2b3==(2)r=(2)-----0-|-----3--------------------4b5r==========(4)------|
|--------------------------------------------0-|--------------------------4b5r==========(4)p===2-|
|--2-------------------------------------------|--2----------------------------------------------|
|----------------------------------------------|-------------------------------------------------|
|----------------------------------------------|-------------------------------------------------|


  N.C.
   E  E   E       E  E  S        +S   +S   S  E      E  E   +Q     E   S        +S   +S   S  S  S
|-------------------------------------------------|-----------------------------------------------|
|----14\-------------x-16b16.5==(16)r(16)p14------|----14----------x--14b14.5==(14)r(14)----------|
|----14\---------------16b16.5==(16)r(16)p14-14---|----14--(14)\---x--14b14.5==(14)r(14)p12-12-12-|
|-16-----(0)--------------------------------------|-16--------------------------------------------|
|-------------------------------------------------|-----------------------------------------------|
|-------------------------------------------------|-----------------------------------------------|
|
|                                                                                     ~~~~~
|  E  Q.             E  S        +S   +S   S  E      E  Q.         E   E             +E.        S
|----14-------------------------------------------|-----------------------------------------------|
|----14--------------x-16b16.5==(16)r(16)p14------|----14-------------14------------(14)p======12-|
|----14--------------x-16b17====(16)r(16)p14-14---|----14-------------14------------(14)p======12-|
|-16----------------------------------------------|-16--------------------------------------------|
|-------------------------------------------------|-----------------------------------------------|
|-------------------------------------------------|-----------------------------------------------|
|
|                    PM                ~~~~~         PM                               ~~~~~
|  E  E  +E      +E  E  E             +E.       S    E  Q.         E   E             +E.        S
|-------------------------------------------------|-----------------------------------------------|
|-----2--(2)b2.5-(2)----4b5r==========(4)---------|-----2--------------2b3r==========(2)----------|
|-----2--(2)b3---(2)-3--4b5r==========(4)-------2-|-----2--------------2b3r==========(2)p=======0-|
|--4----------------------------------------------|--4------------(0)-----------------------------|
|-------------------------------------------------|-----------------------------------------------|
|-------------------------------------------------|-----------------------------------------------|


   E  Q   E  Q        E  E         +E   E  Q        E  E       +Q
|-------------------------------|---------------------------------------|
|----12-----12b12.5-----12b12.5-|-(12)----12b12.5-----12b12.5r(12)------|
|----12-----12b13-------12b13---|-(12)----12b13-------12b12.5r(12)------|
|-14-----14----------14---------|------14----------14-------------------|
|-------------------------------|---------------------------------------|
|-------------------------------|---------------------------------------|
|
|  E  Q   E  Q        E  E         +E   E  Q        E  Q.
|-------------------------------|---------------------------------------|
|----12-----12b12.5-----12b12.5-|-(12)----12b12.5-----12\---------------|
|----12-----12b13-------12b13---|-(12)----12b13-------12\---------------|
|-14-----14----------14---------|------14----------14-------------------|
|-------------------------------|---------------------------------------|
|-------------------------------|---------------------------------------|
|
|  E  Q   E  Q        E  E         +E   E  Q        E  E       +E   E
|-----3------3-----------3------|--(3)-----3-----------3-------(3)\-----|
|-----3------3-----------3------|--(3)-----3-----------3-------(3)\-----|
|-------------------------------|---------------------------------------|
|--2------2-----------2---------|-------2-----------2-------------------|
|-------------------------------|---------------------------------------|
|-------------------------------|---------------------------------------|


  E5        E7              E5
   ~~~                       ~~~
   H.           +S  +S  E    H.            +S   +S  S +S
|-------------------------|-------------------------------|
|-------------------------|-------------------------------|
|-/9------------(9)-(9)S2S|=13------------(13)-(13)S2-(2)S|
|-------------------------|-------------------------------|
|-------------------------|-------------------------------|
|-------------------------|-------------------------------|
|
|                                 PM----------------|
|  W                         Q    E E E E   E       E
|-------------------------|-------------------------------|
|-------------------------|-------------------------------|
|-------------------------|--1----------------------------|
|-------------------------|--2----2-2-2-2---2-------2-----|
|--2----------------------|-------------------------------|
|--0----------------------|-------------------------------|
|
|  E  E E E E E  E      E    E  E E E E E   E       E
|-------------------------|-------------------------------|
|-------------------------|-------------------------------|
|-----------7-7--7------7-|--9--9-9-9-9-9---9-------9-----|
|--9--9-9-9-9-9--9------9-|--9--9-9-9-9-9---9-------9-----|
|--7--7-7-7-7-7--7------7-|--7--7-7-7-7-7---7-------7-----|
|--0--0-0-0-0-0--0------0-|--0--0-0-0-0-0---0-------0-----|


                                        A5B5A5B5A5F#5  E5
   ~~~~~~~~~~~~~
   H        +E   +E  E.    S        +H.            +E.    +S
|--------------------------------|----------------------------|
|-------------------------10b12==|=(10)-----------(10)r==(10)-|
|-14-------(14)-(14)S2-----------|----------------------------|
|--------------------------------|----------------------------|
|--------------------------------|----------------------------|
|--------------------------------|----------------------------|
|
|                                                      PM
|  Q   E E   E    E  E  E            E  E E E E E   E  E
|--------------------------------|----------------------------|
|--------------------------------|----------------------------|
|--2---2-2---2----2--2--2--------|------2-4-2-4-2-------------|
|--2---2-2---2----2--2--2--------|------2-4-2-4-2---4--2------|
|--------------------------------|------------------4--2------|
|--------------------------------|----------------------------|
|
|                                                      PM
|  E E E E   E    E  E  E            E  E E E E E   E  E
|--------------------------------|----------------------------|
|--------------------------------|----------------------------|
|--9-9-9-9---9----9--9--9--------|---9--2-4-2-4-2-------------|
|--9-9-9-9---9----9--9--9--------|---9--2-4-2-4-2---4--2------|
|--7-7-7-7---7----7--7--7--------|---7--------------4--2------|
|--0-0-0-0---0----0--0--0--------|---0------------------------|


  F#5        E5   F#E5F#5      A5   B5A5B5     A5F#E5
  Gtr III
               ~~~~~~~~~~~~~~~~~~~~~~~~~~~~~~~~~~~~~~~
   H          +H           +E    Q.       +H
|-----------------------|----------------------------|
|-12b14======(12)-------|-(12)-[12]-----([12])-------|
|-----------------------|----------------------------|
|-----------------------|----------------------------|
|-----------------------|----------------------------|
|-----------------------|----------------------------|
|
| Gtr IV
|  W                        W
|-----------------------|----------------------------|
|-----------------------|----------------------------|
|-----------------------|----------------------------|
|-----------------------|----------------------------|
|-----------------------|----------------------------|
|-----------------------|----------------------------|
|
| Gtrs I, II
|                   PM
|  Q      q    E  E E E    +E    E  E E    E   E E E
|-----------------------|----------------------------|
|-----------------------|----------------------------|
|-----------------------|--------2--4-2----4---2-----|
|---------4----2--4-2-4-|--(4)---2--4-2----4---2-4-2-|
|--4------4----2--4-2-4-|--(4)-------------------4-2-|
|--2--------------------|----------------------------|


  F#5                         A5B5A5    B5  A5F#E5
 ~~~~~~~~~~~~~~~~~~~~~~~~~~~~~
    +W                   +W
|--------------------|-----------------------------|
|-([12])-------------|-([12])----------------------|
|--------------------|-----------------------------|
|--------------------|-----------------------------|
|--------------------|-----------------------------|
|--------------------|-----------------------------|
|
|    W                    Q     E E     +Q.     E
|--------------------|-----------------------------|
|--------------------|------------5pb7==(5)-----5--|
|--------------------|-----------------------------|
|--------------------|-----------------------------|
|--------------------|-----------------------------|
|--------------------|-----------------------------|
|
|    Q    Q  E E E E     +E   E E E      E  E E E
|--------------------|-----------------------------|
|--------------------|-----------------------------|
|--------------------|--------2-4-2------4--2------|
|--------------------|--------2-4-2------4--2-4-2--|
|----4----4--x-4---4-|---(4)------------------4-2--|
|----2----2--x-2---2-|---(2)-----------------------|


  E5                                A5B5A5B5    A5F#5    E5
     ~~~~~~~~~~~~~~~~~~~~~~~~~~~~~~~~~~~~~~~~~~~~~~~~~~~~~~~
    +W                         +W
|--------------------------|-------------------------------|
|-([12])-------------------|-([12])------------------------|
|--------------------------|-------------------------------|
|--------------------------|-------------------------------|
|--------------------------|-------------------------------|
|--------------------------|-------------------------------|
|
|                                                  \1/
|                               ~~~~~~
|                   |-3--|
|   +H.          a +Q    E     +H         +Q      +E     E
|--------------------------|-----------------------------2-|
|---(5)----------5r(5)---5-|---(5)--------(5)b6---(5)pb7---|
|--------------------------|-------------------------------|
|--------------------------|-------------------------------|
|--------------------------|-------------------------------|
|--------------------------|-------------------------------|
|
|    Q    Q  e E    E  E       +E   E E E  E    E  E     E
|---------0----------------|-------------------------------|
|---------0----------------|-------------------------------|
|--------------------------|----------4-2--4----2----------|
|----2----2----------------|----------4-2--4----2--4-----2-|
|----2----2--5-5s===4--4---|---(4)--0--------------4-----2-|
|----0----0----------------|-------------------------------|


  F#5                                              A5       B5      A5B5A5F#E5
 ~~~~~~~~~~~~~~~~~~~~~~~~~~~~~~~~~~~~~~~~~~~~~~~~~~~~~~~~~
    +W                                      +E       +E       +Q      H
|---------------------------------------|-------------------------------------|
|-([12])--------------------------------|-([12])r==([12])---([12])\-----------|
|---------------------------------------|-------------------------------------|
|---------------------------------------|-------------------------------------|
|---------------------------------------|-------------------------------------|
|---------------------------------------|-------------------------------------|
|
|                     ~~~
|    S   E. E   +S  S E.    S S S S S       +S   S    S   S    E    E E E E E
|-----------------------------2---------|--------2----------------------------|
|----5p==2------------------2---5p2-----|-------------5p==2-------------------|
|-----------4b6r(4)p2-4b6-----------4b6-|---(4)----------------4----2-4-2-----|
|---------------------------------------|---------------------------------4-2-|
|---------------------------------------|-------------------------------------|
|---------------------------------------|-------------------------------------|
|
|    Q      Q         E   E   E   E         +E        E        E    E E E E E
|---------------------------------------|-------------------------------------|
|---------------------------------------|-------------------------------------|
|---------------------------------------|-------------2--------4----2-4-2-----|
|---------------------------------------|-------------2--------4----2-4-2-4-2-|
|----4------4---------x---4-------4-----|---(4)---------------------------4-2-|
|----2------2---------x---2-------2-----|---(2)-------------------------------|


 1st Verse
  F#5
  Gtr I
  W                      +W
|----------------------|---------------------|
|----------------------|---------------------|
|----------------------|---------------------|
|----------------------|---------------------|
|-4--------------------|-(4)-----------------|
|-2--------------------|-(2)-----------------|
|
| Gtr II
| PM     PM|              PM   PM|
| Q   E  S S  E  E E E    E  E E E  E  E E E
|-----2----------2---2-|---------------------|
|-----2----------2---2-|-----2------4--------|
|--------------------2-|-----2-4-2--4--2-----|
|-4------4-4--4--------|--4--2-4---------4-2-|
|----------------------|---------------------|
|----------------------|---------------------|
|
| Gtr IV
|     ~~~~~~~~~~~~~~~~~~~~~~~~~~~~~~~~~
| Q  +Q      +Q.     E   +H        +E  E Q
|----------------------|---------------------|
|--------------------2-|-(2)-------(2)-------|
|--------------------2-|-(2)-------(2)-------|
|-4--(4)-----(4)-----2-|-(2)-------(2)-------|
|----------------------|---------------------|
|----------------------|---------------------|


   (2nd Verse cont)
                                         F5E5
                                           PM
    +W                   +H        +E  E E E
||---------------------|----------------------|
||o--------------------|----------------------|
||---------------------|----------------------|
||---------------------|----------------------|
||o-(4)----------------|-(4)-------(4)-4-3-2--|
||--(2)----------------|-(2)-------(2)-2-1-0--|
|
|    ~~~     PM|   PM     PM        PM-|
|    Q   E S S E E E E    E  E E E  E  E E E
||-------2-------2---2-|----------------------|
||o------2-------2---2-|-----2-4-2--4--2------|
||---------------------|-----2-4-2--4--2------|
||---4-----x-4-4---4---|--4--------------4-0--|
||o--------------------|----------------------|
||---------------------|----------------------|
|
|    W                    W
||---------------------|----------------------|
||o--------------------|----------------------|
||---------------------|----------------------|
||---------------------|----------------------|
||o--------------------|----------------------|
||---------------------|----------------------|


  E5
                                        PM
  H..              E   +H..             E
|------------------0-|-(0)----------------|
|------------------0-|-(0)----------------|
|--------------------|--------------------|
|--------------------|------------------4-|
|-2------------------|--------------------|
|-0------------------|--------------------|
|
|                               PM--|   PM
| Q    E S S E E E E   +E   E E E E E E E
|------0-------0---0-|-(0)----------------|
|------0-----0---2-0-|-(0)--2-4-2-4-2-----|
|-1------x-x-1-------|------2-4-2-4-2-----|
|-2------x-x---------|----------------4-2-|
|--------------------|--------------------|
|--------------------|--------------------|


  F#5                    A5B5A5B5A5F#E5
  W                  +E  E E E E E E E
|------------------|--------------------|
|------------------|--------------------|
|------------------|-----2-4-2-4-2------|
|------------------|-----2-4-2-4-2-4-2--|
|-4----------------|-(4)-----------4-2--|
|-2----------------|-(2)----------------|
|
| ~
| Q  E S S E E E E    E  E E E E E E E
|----2-------2---2-|--------------------|
|----2-x-x-2-2---2-|--4-----------------|
|------------------|--4--2-4-2-4-2------|
|-4----------------|-----2-4-2-4-2-4-2--|
|------------------|---------------4-2--|
|------------------|--------------------|


  F#5                  A5B5A5B5A5F#E5  F#5                    A5B5A5B5A5F#E5
  Q  Q   E E E E   +E  E E E E E E E   Q  Q     E E E E   +E  E E E E E E E
|----------------|-------------------|------------------|-------------------|
|----------------|-------------------|------------------|-------------------|
|----------------|-----2-4-2-4-2-----|------------------|-----2-4-2-4-2-----|
|----------------|-----2-4-2-4-2-4-2-|------------------|-----2-4-2-4-2-4-2-|
|-4--4---x-4---4-|-(4)-----------4-2-|-4--4-----x-4---4-|-(4)-----------4-2-|
|-2--2---x-2---2-|-(2)---------------|-2--2-----x-2---2-|-(2)---------------|
|
|            PM                  PM|   ~        PM
| Q  E E E E E E    E  E E E E E E E   Q  E S S E E E E    E  E E E E E E E
|----------2---2-|-------------------|----2-------2---2-|-------------------|
|----2-x---2-2-2-|-----2-4-2-4-2-----|----2-x-x---2---2-|-----2-4-2-4-2-----|
|----2-x---------|-----2-4-2-4-2-----|------x-x---------|-----2-4-2-4-2-----|
|----------------|---------------4-2-|-4--------4-------|---------------4-0-|
|-4------x-------|-------------------|------------------|-------------------|
|-2------x-------|-------------------|------------------|-------------------|


  E5
  Q  Q   e E E E   +E  E E E E     E   E E
|----0-----------|-------------------------|
|----0-----------|-------------------------|
|----------------|-----2-4-2---------------|
|-2--2-----------|-----2-4-2-4-----2-------|
|-2--2---5-5s4-4-|-(4)-----------------4-0-|
|-0--0-----------|-------------------------|
|
|                   PM-----|
| Q  E E E E E E    E  E E E E     E   E E
|----0-----0---0-|-------------------------|
|----0---0---2---|-----2-----4b4.5---------|
|-1----x-1-------|-----2-4-2-4b4.5-2b3-----|
|-2----x---------|--2----4-------------4-2-|
|----------------|-------------------------|
|----------------|-------------------------|


  F#5                  A5B5A5B5A5
  Q  E E   E E E E   E E E E E E E E
|------------------|-----------------|
|------------------|-----------------|
|------------------|---2-4-2-4-2-----|
|------------------|---2-4-2-4-2-----|
|-4--4-x---x-4---4-|-------------4-0-|
|----2-x---x-2---2-|-----------------|
|
| ~        PM                    PM
| Q  E S S E E E E   E E E E E E E E
|----2-------2---2-|-----------------|
|----2-x-x---2---2-|-----------------|
|------x-x---------|---2-4-2-4-2-----|
|-4--------4-------|---2-4-2-4-2-2---|
|------------------|---------------0-|
|------------------|-----------------|


 Chorus
  A5               B5               F#5
  W                W                W              +W
|----------------|----------------|--------------|--------|
|----------------|----------------|--------------|--------|
|----------------|----------------|--------------|--------|
|-2--------------|-4--------------|--------------|--------|
|-0--------------|-2--------------|-4------------|-(4)----|
|----------------|----------------|-2------------|-(2)----|
|
| Q  H.       a    Q  H.       a    E. S H.        +W
|----------------|----------------|--------------|--------|
|----------------|----------------|--------------|--------|
|----2-------(2)-|----4-------(4)-|--------------|--------|
|-2--2-------(2)-|-4--------------|------4-------|-(4)----|
|-0--------------|-2--------------|----4---------|--------|
|----------------|----------------|-2------------|--------|


  A5             B5                F#5
  W              W                 W              +E  Q  E Q  E E
|--------------|-----------------|--------------|-----------------|
|--------------|-----------------|--------------|-----------------|
|--------------|-----------------|--------------|-----------------|
|-2------------|-4---------------|--------------|-----------------|
|-0------------|-2---------------|-4------------|-(4)-4--x-4--4-0-|
|--------------|-----------------|-2------------|-(2)-2--x-2--2---|
|
|                                                               PM
| E. S H.        E E H.       a    E. S H.         E  Q  E Q  E E
|--------------|-----------------|--------------|-----------------|
|----2-2-------|-----------------|--------------|-----------------|
|----2-2-------|-----4-------(4)-|--------------|-----------------|
|-2----2-------|---4-------------|------4-------|-----4--x-4--4---|
|-0----0-------|-2---------------|----4---------|--4-------4--4-0-|
|--------------|-----------------|-2------------|--2-------2--2---|


  A5                 B5
  W                  W
|------------------|--------------------|
|------------------|--------------------|
|------------------|--------------------|
|-2----------------|-4------------------|
|-0----------------|-2------------------|
|------------------|--------------------|
|
|                        ~~~~~~~~~
| E. S H.       a    E E H    +S   E  S
|------------------|--------------------|
|------------------|--------------------|
|------2-------(2)-|-----4----(4)-(0)-x-|
|-2--2-------------|---4----------(0)-x-|
|-0----------------|-2------------------|
|------------------|--------------------|
|
| Gtr III
| W                  W
|------------------|--------------------|
|------------------|--------------------|
|------------------|--------------------|
|------------------|--------------------|
|------------------|--------------------|
|------------------|--------------------|


  F#5
                    PM
   Q  E E     E E E E    Q  E E +E  +E   E E
|---------------------|----------------------|
|---------------------|----------------------|
|---------------------|----------------------|
|---------------------|----------------------|
|--4--4-x-----4-4---4-|--4--4-4-(4)-(4)\-x-x-|
|--2--2-x-----2-2---2-|--2--2-2-(2)-(2)\-x-x-|
|
|  H          H          H       E   E   E E
|---------------------|----------------------|
|---------------------|----------------------|
|---------------------|----------------------|
|--7----------6-------|--4-------------------|
|---------------------|----------------------|
|--5----------4-------|--2-------0---1---2-4-|
|
|  H       a  H          H       H
|---------------------|----------------------|
|---------------------|----------------------|
|-14------11s13-------|-11-------------------|
|---------------------|----------------------|
|-12-------9s11-------|--9-------------------|
|---------------------|----------------------|


               1.
  A5            B5              F#5            A5B5A5B5A5F#E5
  W             Q.   E +H       W          +E  E E E E E E E
|-------------|---------------|----------|--------------------|
|-------------|---------------|----------|--------------------|
|-------------|---------------|----------|-----2-4-2-4-2------|
|-2-----------|-4----4-(4)----|-4--------|-(4)-2-4-2-4-2-4-2--|
|-0-----------|-2----2-(2)----|-4--------|-(4)-----------4-2--|
|-------------|---------------|-2--------|-(2)----------------|
|
|                       ~~~
| E E H.        H      +H       W          +E  E E E E E E E
|-------------|---------------|----------|--------------------|
|-------------|---------------|----------|--------------------|
|-----2-------|-4------(4)----|----------|-----2-4-2-4-2------|
|---2---------|-4------(4)----|-4--------|-(4)-2-4-2-4-2-4-2--|
|-0-----------|-2------(2)----|-4--------|-(4)-----------4-2--|
|-------------|---------------|-2--------|-(2)----------------|


 Interlude
  F#5   E5F#E5F#5     A5B5A5B5A5F#E5  F#5
  Gtrs I, II
            PM
  Q  q  E E E E   +E  E E E E E E E   Q  Q   E  E E E
|---------------|-------------------|-----------------|
|---------------|-------------------|-----------------|
|---------------|-----2-4-2-4-2-----|-----------------|
|----4--2-4-2-4-|-(4)-2-4-2-4-2-4-2-|-----------------|
|-4--4--2-4-2-4-|-(4)-----------4-2-|-4--4---x--4---4-|
|-2-------------|-------------------|-2--2---x--2---2-|
|
| Gtr III
| W                W                  H      H
|---------------|-------------------|-----------------|
|---------------|-------------------|-----------------|
|---------------|-------------------|-------[0]-------|
|---------------|-------------------|-----------------|
|---------------|-------------------|-----------------|
|---------------|-------------------|-----------------|


        A5B5  A5B5    A5F#E5
   +E   E  E  E   E   E E  E
|------------------------------------|
|------------------------------------|
|-------2--4--2---4---2--------------|
|-------2--4--2---4---2-4--2---------|
|--(4)------------------4--2---------|
|--(2)-------------------------------|
|
|  +Q      Q     +E   E E  E
|------------------------------------|
|---------------------x-x-17pb19.5===|
|-([0])------------------------------|
|------------------------------------|
|---------[0]---([0])----------------|
|---------[0]---([0])----------------|


  E5                                          A5B5A5B5A5F#5   E5
    Q     Q          e    E   E    E      +E  E E E E E  E     E
|---------0-----------------------------|------------------------------|
|---------0-----------------------------|------------------------------|
|---------------------------------------|-------4-2-4-2----------------|
|---2-----2-----------------------------|-------4-2-4-2--4-----2-------|
|---2-----2----------5----5s==4----4----|-(4)-0----------4-----2-------|
|---0-----0-----------------------------|------------------------------|
|
|                                          ~~~
|                             |---3---|
|  +Q    +Q         +E   +E   E  E    E    H.            S  S  S  S
|---------------------------------------|---------------14-------17b19-|
|-(17)r=(17)pb19===(17)r(17)-14---------|-17---------------17p14-------|
|------------------------------------14-|------------------------------|
|-------------------------------16------|------------------------------|
|---------------------------------------|------------------------------|
|---------------------------------------|------------------------------|


  F#5                                       A5B5      A5   B5    A5   F#5   E5
    Q    Q          E  E     E     E    +E  E   E       E   E    E     E      E
|------------------------------------|--------------------------------------------|
|------------------------------------|--------------------------------------------|
|------------------------------------|------2---4-------2---4----2----------------|
|------------------------------------|------2---4-------2---4----2-----4------2---|
|---4----4----------x--4-----------4-|--(4)----------------------------4------2---|
|---2----2----------x--2-----------2-|--(2)---------------------------------------|
|
|                                                           |---3---|
|  +Q    E     +E   E  S  S  E     E    +Q     +E      +E   E  E    E  E     +E
|-(17)--17b18-(17)-14-------16b17-16-|-(16)---(16)b17r(16)p14---------------------|
|---------------------17-14----------|------------------------17p==14-------------|
|------------------------------------|--------------------------------16b18r(16)--|
|------------------------------------|--------------------------------------------|
|------------------------------------|--------------------------------------------|
|------------------------------------|--------------------------------------------|


 2nd Verse
  F#5
  Gtr I
   W                                     +W
|-------------------------------------|--------------------------||
|-------------------------------------|-------------------------o||
|-------------------------------------|--------------------------||
|-------------------------------------|--------------------------||
|--4----------------------------------|--(4)--------------------o||
|--2----------------------------------|--(2)---------------------||
|
| Gtr II
|  PM           PM|                       PM        PM|
|  Q          E S S   E  E E  E           E     E   E E E E E E
|-------------2----------2----2-------|--------------------------||
|-------------2----------2----2-------|---------2-------4-------o||
|-----------------------------2-------|---------2---4-2-4-2------||
|--4------------4-4---4---------------|---4-----2---4-------4-2--||
|-------------------------------------|-------------------------o||
|-------------------------------------|--------------------------||
|
| Gtr III
|             ~~~~~~~~~~~
|  E       E  Q      +Q.      E          +E    +E   Q   H
|-------------------------------------|--------------------------||
|----------------------------14b14.5==|=(14)r-(14)\-------------o||
|-14b14.5--------------------14b14.5==|=(14)r-(14)\--------------||
|---------16-16-----(16)--------------|--------------------------||
|-------------------------------------|-------------------------o||
|-------------------------------------|--------------------------||

[ Tab from: http://www.guitaretab.com/g/guns-n-roses/7625.html ]
  2.
  B5            C#5                      N.C.
          PM|   ~
  H    Q  E E   W              +Q    E E   E    E             +S   S  E
|-------------|-------------|-------------------------------------------|
|-------------|-------------|-------------------------------------------|
|---------4-4-|-6-----------|--(6)\--x-x--14---16b18r========(16)p14-14-|
|-------------|-------------|-------------------------------------------|
|-------------|-------------|-------------------------------------------|
|-------------|-------------|-------------------------------------------|
|
| W             W               Q    Q     E    S        +S   +E      E
|-------------|-------------|-------------------------------------------|
|-------------|-------------|------------------16b16.5==(16)r(16)-------|
|-4-----------|-6-----------|---6\-------------16b16.5==(16)r(16)----14-|
|-4-----------|-6-----------|---6\--------------------------------------|
|-2-----------|-4-----------|---4\--------------------------------------|
|-------------|-------------|-------------------------------------------|
|
| W             Q   H.         +H         +E    E             +E      E
|-------------|----[7]------|-([7])------([7])--------------------------|
|-------------|-------------|-------------------------------------------|
|-4-----------|-6-----------|--(6)--------(6)---4b4.5r========(4)-----2-|
|-4-----------|-6-----------|--(6)--------(6)---4b4.5r========(4)-----2-|
|-2-----------|-4-----------|--(4)--------(4)---------------------------|
|-------------|-------------|-------------------------------------------|
                W              +H         +E    E              Q


 Interlude
  N.C.
   E  Q.    +H        +H      +E   S        +S    +S   S  E
|------------------|-------------------------------------------|
|----14----(14)----|-(14)----(14)-14b14.5==(14)r=(14)----------|
|----14----(14)----|-(14)----(14)-14b14.5==(14)r=(14)p12-12----|
|-16-14----(14)----|-(14)----(14)------------------------------|
|------------------|-------------------------------------------|
|------------------|-------------------------------------------|
|
|  E  Q.    +H        +H      +E.            S    +E.        S
|----14----(14)----|-(14)----(14)------------------------------|
|----14----(14)----|-(14)----(14)-----------14---(14)p======12-|
|----14----(14)----|-(14)----(14)-----------14---(14)p======12-|
|-16---------------|-------------------------------------------|
|------------------|-------------------------------------------|
|------------------|-------------------------------------------|
|
|  E  Q.    +H        +H      +E   S         S    +E      E
|------------------|-------------------------------------------|
|-----2-----(2)----|--(2)-----(2)------------2b3r=(2)p====0----|
|-----2-----(2)----|--(2)-----(2)--x---------2b3r=(2)p====0----|
|--4--2-----(2)----|--(2)-----(2)--x---------------------------|
|------------------|-------------------------------------------|
|------------------|-------------------------------------------|


                                    PM
   E  Q.    +H        +Q    +Q      E   S        +S   +E   E
|------------------|-------------------------------------------|
|----12----(12)----|-(12)--(12)\--------------------------14---|
|----12----(12)----|-(12)--(12)\---13--16b18====(16)r(16)-14---|
|-14---------------|-------------------------------------------|
|------------------|-------------------------------------------|
|------------------|-------------------------------------------|
|
|     ~~~~~~~~~~~~~~~~~~~~
|  E  Q.    +H        +H           +E   S        +S   +E   E
|------------------|-------------------------------------------|
|----12----(12)----|-(12)---------(12)-16b16.5==(16)r(16)p14---|
|----12----(12)----|-(12)---------(12)-16b17====(16)r(16)p14---|
|-14---------------|-------------------------------------------|
|------------------|-------------------------------------------|
|------------------|-------------------------------------------|
|
|            ~~~~~~~~~~~~~
|  E  Q.    +H        +H           +E   S        +S   +E   S S
|-----3-----(3)----|--(3)----------(3)-------------------------|
|-----3-----(3)----|--(3)----------(3)--4b5======(4)r=(4)--4p2-|
|------------------|--------------------4b5======(4)r=(4)--4p2-|
|--2---------------|-------------------------------------------|
|------------------|-------------------------------------------|
|------------------|-------------------------------------------|


  N.C.
   E  Q.    +H        +E   +E   E E   E   S        +S   +E        E
|------------------|--------------------------------------------------|
|----14----(14)----|-(14)-(14)\----------14b14.5==(14)r(14)-----------|
|----14----(14)----|-(14)-(14)\---x---x--14b14.5==(14)r(14)------12h==|
|-16---------------|--------------------------------------------------|
|------------------|--------------------------------------------------|
|------------------|--------------------------------------------------|
|
|  E  Q.    +H        +H             +E   S        +S   +E        E
|----14----(14)----|-(14)-----------(14)------------------------------|
|----14----(14)----|-(14)-----------(14)-14b14.5==(14)r(14)p=====12---|
|----14----(14)----|-(14)-----------(14)-14b15====(14)r(14)p=====12---|
|-16---------------|--------------------------------------------------|
|------------------|--------------------------------------------------|
|------------------|--------------------------------------------------|
|
|  E  Q.    +H        +H             +E   E              S   +E     S
|------------------|--------------------------------------------------|
|-----2-----(2)----|--(2)------------(2)--2--------------2b3r(2)------|
|-----2-----(2)----|--(2)------------(2)--2--------------2b3r(2)p===0-|
|--4--2-----(2)----|--(2)------------(2)------------------------------|
|------------------|--------------------------------------------------|
|------------------|--------------------------------------------------|


   E  Q.    +H         +E   E Q   E     E         +E.  S
|-------------------|------------------------------------|
|----12----(12)-----|-(12)\------------16b17r====(16)p14-|
|-14-12----(12)-----|-(12)\-------x----------------------|
|-------------------|------------------------------------|
|-------------------|------------------------------------|
|-------------------|------------------------------------|
|
|     ~~~~~~~~~~~~~~~~~~~~~~                       ~~~~~
|  E  Q.    +H         +H         E.          S   +E.  S
|-------------------|------------------------------------|
|----12----(12)-----|-(12)--------x\---------16--(16)----|
|----12----(12)-----|-(12)--------x\---------16--(16)p14-|
|-14----------------|------------------------------------|
|-------------------|------------------------------------|
|-------------------|------------------------------------|
|
|                 ~~~~~~~~~~
|  E  Q.     Q.   E    +H        +S  S  S    +S   +E.  S
|-----3------3----3-|--(3)-------(3)---------------------|
|-----3------3----3-|--(3)-------(3)-x--4b5==(4)r=(4)----|
|-------------------|----------------x--4b5==(4)r=(4)--2-|
|--2----------------|------------------------------------|
|-------------------|------------------------------------|
|-------------------|------------------------------------|


  N.C.
   E  Q          E  E  S      +S   +S   S  E       E  Q.                  E  S        +S   +S   S  E
|-----------------------------------------------|-------------------------------------------------------|
|----14-----------------------------------------|---------------------------14b14.5==(14)r(14)p12-------|
|----14---------------16b18==(16)r(16)p14-14----|----14-------------------x-14b14.5==(14)r(14)p12-12----|
|-16-14-----------------------------------------|-16-14-------------------------------------------------|
|-----------------------------------------------|-------------------------------------------------------|
|-----------------------------------------------|-------------------------------------------------------|
|
|                                   ~~~~~                                    ~~~~~~~~~~~~~~~~~~~
|  E  E  E       E  E  E           +E.        S    E  E   +E        +E    E  E             +E.        S
|-----------------------------------------------|-------------------------------------------------------|
|----14--x------14--x-16----------(16)p======14-|----14--(14)b14.5-(14)-----14------------(14)p======12-|
|----14--x------14--x-16----------(16)p======14-|----14--(14)b15---(14)-----14------------(14)p======12-|
|-16--------------------------------------------|-16----------------------------------------------------|
|-----------------------------------------------|-------------------------------------------------------|
|-----------------------------------------------|-------------------------------------------------------|
|
|                   PM
|  E  E +E      +E  E  E           +E.        S    E  Q.                a E  E             +E.        S
|-----------------------------------------------|-------------------------------------------------------|
|-----2-(2)b2.5-(2)----4b5r========(4)----------|-----2----------------------2b3r==========(2)----------|
|-----2-(2)b3---(2)-3--4b5r========(4)p=======2-|-----2-------------------2--2b3r==========(2)p=======0-|
|--4--------------------------------------------|--4--2-----------------x-------------------------------|
|-----------------------------------------------|-------------------------------------------------------|
|-----------------------------------------------|-------------------------------------------------------|


   E  Q              E  E  E         +E   E       E  Q              E  E  S        +S   +E   E
|----------------------------------------------|-------------------------------------------------|
|----12----------------------------------------|-------------------------------------------------|
|----12--------------x--x-14b16r====(14)-12----|----12\------------------16b18====(16)r(16)p14---|
|-14-----------------x--x--x-------------------|-14----------------------------------------------|
|----------------------------------------------|-------------------------------------------------|
|----------------------------------------------|-------------------------------------------------|
|
|                          ~~~~~~~~~~~~~~~
|  E  E   +E        +E  E  E         +E.     S    E  E   +E        +E  E  S        +S   +E   E
|----------------------------------------------|-------------------------------------------------|
|----12--(12)b12.5-(12)---14--------(14)p===12-|----12--(12)b12.5-(12)---16b16.5==(16)r(16)p14---|
|----12--(12)b13---(12)---14--------(14)p===12-|----12--(12)b12.5-(12)---16b17====(16)r(16)p14---|
|-14-------------------------------------------|-14----------------------------------------------|
|----------------------------------------------|-------------------------------------------------|
|----------------------------------------------|-------------------------------------------------|
|
|  E  Q.                E  S    +S   +E.     S    E  Q.                E  E             +E.    S
|-----3----------------------------------------|-----3-------------------------------------------|
|-----3--------------------2b3==(2)r=(2)-----0-|-----3--------------------4b5r==========(4)------|
|--------------------------------------------0-|--------------------------4b5r==========(4)p===2-|
|--2-------------------------------------------|--2----------------------------------------------|
|----------------------------------------------|-------------------------------------------------|
|----------------------------------------------|-------------------------------------------------|


  N.C.
   E  E   E       E  E  S        +S   +S   S  E      E  E   +Q     E   S        +S   +S   S  S  S
|-------------------------------------------------|-----------------------------------------------|
|----14\-------------x-16b16.5==(16)r(16)p14------|----14----------x--14b14.5==(14)r(14)----------|
|----14\---------------16b16.5==(16)r(16)p14-14---|----14--(14)\---x--14b14.5==(14)r(14)p12-12-12-|
|-16-----(0)--------------------------------------|-16--------------------------------------------|
|-------------------------------------------------|-----------------------------------------------|
|-------------------------------------------------|-----------------------------------------------|
|
|                                                                                     ~~~~~
|  E  Q.             E  S        +S   +S   S  E      E  Q.         E   E             +E.        S
|----14-------------------------------------------|-----------------------------------------------|
|----14--------------x-16b16.5==(16)r(16)p14------|----14-------------14------------(14)p======12-|
|----14--------------x-16b17====(16)r(16)p14-14---|----14-------------14------------(14)p======12-|
|-16----------------------------------------------|-16--------------------------------------------|
|-------------------------------------------------|-----------------------------------------------|
|-------------------------------------------------|-----------------------------------------------|
|
|                    PM                ~~~~~         PM                               ~~~~~
|  E  E  +E      +E  E  E             +E.       S    E  Q.         E   E             +E.        S
|-------------------------------------------------|-----------------------------------------------|
|-----2--(2)b2.5-(2)----4b5r==========(4)---------|-----2--------------2b3r==========(2)----------|
|-----2--(2)b3---(2)-3--4b5r==========(4)-------2-|-----2--------------2b3r==========(2)p=======0-|
|--4----------------------------------------------|--4------------(0)-----------------------------|
|-------------------------------------------------|-----------------------------------------------|
|-------------------------------------------------|-----------------------------------------------|


   E  Q   E  Q        E  E         +E   E  Q        E  E       +Q
|-------------------------------|---------------------------------------|
|----12-----12b12.5-----12b12.5-|-(12)----12b12.5-----12b12.5r(12)------|
|----12-----12b13-------12b13---|-(12)----12b13-------12b12.5r(12)------|
|-14-----14----------14---------|------14----------14-------------------|
|-------------------------------|---------------------------------------|
|-------------------------------|---------------------------------------|
|
|  E  Q   E  Q        E  E         +E   E  Q        E  Q.
|-------------------------------|---------------------------------------|
|----12-----12b12.5-----12b12.5-|-(12)----12b12.5-----12\---------------|
|----12-----12b13-------12b13---|-(12)----12b13-------12\---------------|
|-14-----14----------14---------|------14----------14-------------------|
|-------------------------------|---------------------------------------|
|-------------------------------|---------------------------------------|
|
|  E  Q   E  Q        E  E         +E   E  Q        E  E       +E   E
|-----3------3-----------3------|--(3)-----3-----------3-------(3)\-----|
|-----3------3-----------3------|--(3)-----3-----------3-------(3)\-----|
|-------------------------------|---------------------------------------|
|--2------2-----------2---------|-------2-----------2-------------------|
|-------------------------------|---------------------------------------|
|-------------------------------|---------------------------------------|


 Bridge
  G5         F#5  G5   A              D   A             G5
  Gtrs I, II
  W          H    Q.   S S   H    +E  E E E   H..       S S
|----------|---------------|----------2-----|----------------|
|----------|-----------2-2-|-2----(2)-3---2-|-2--------------|
|-0--------|------0----2-2-|-2----(2)-2---2-|-2---------0-0--|
|-0--------|------0----2-2-|-2----(2)-0---2-|-2---------0-0--|
|----------|-4---------0-0-|-0----(0)-----0-|-0--------------|
|-3--------|-2----3--------|----------------|-----------3-3--|


  G5         F#5  G5   A              D   A             G5
  W          H    Q.   S S   H    +E  E E E   H..       S S
|----------|---------------|----------2-----|----------------|
|----------|-----------2-2-|-2----(2)-3---2-|-2--------------|
|-0--------|------0----2-2-|-2----(2)-2---2-|-2---------0-0--|
|-0--------|------0----2-2-|-2----(2)-0---2-|-2---------0-0--|
|----------|-4---------0-0-|-0----(0)-----0-|-0--------------|
|-3--------|-2----3--------|----------------|-----------3-3--|


  G5         F#5  G5       B5         A
                                                PM
  W          H    Q.   E   Q  Q  E Q  E   Q  Q  E Q.
|----------|-------------|--------------|---------------|
|----------|-------------|------------2-|-2--2--2-2-----|
|-0--------|------0------|------------2-|-2--2--2-2-----|
|-0--------|------0------|-4--4--4-4--2-|-2--2--2-2-----|
|----------|-4---------0-|-2--2--2-2--0-|-0--0--0-0-----|
|-3--------|-2----3------|--------------|---------------|


  G             F#5   D5  A5B5
  H..       E   Q  Q  E E E E
|-------------|---------------|
|-------------|-------3-3-----|
|-4---------x-|-------2-2-----|
|-5---------x-|-------0-0-2-4-|
|-5---------x-|-4--4------0-2-|
|-3---------x-|-2--2----------|
|
| Gtr III
| W             H     E E E E
|-------------|---------------|
|-------------|-------7-7-7---|
|-------------|-------7-7-7---|
|-------------|-------------9-|
|-------------|---------------|
|-------------|---------------|


 Guitar Solo
  B5                                          D5  A5B5
  +Q    Q   E      E  E E        +Q   Q       E E E E
|------------------------------|----------------------|
|------------------------------|--------------3-3-----|
|------------------------------|--------------2-2-----|
|-(4)---4---4------4----4------|-(4)--4-------0-0-2-4-|
|-(2)---2---2------2----2------|-(2)--2-----------0-2-|
|------------------------------|----------------------|
|
| +E  E E E E     +E  E E        +Q   S +S  E E E E E
|------------------------------|----------------------|
|-------7---9b9.5-(9)---9b9.5==|=(9)--9r(9)p7-9-7-----|
|-------7---9b10--(9)---9b10===|=(9)--9r(9)p7-9-7-----|
|-(9)-9---9--------------------|------------------9-7-|
|------------------------------|----------------------|
|------------------------------|----------------------|


                                           D5    A5
  +Q   Q     E E E E   +Q           Q      E E E E
|--------------------|----------------------------------|
|--------------------|---------------------3-3-3--------|
|--------------------|---------------------2-2-2--------|
|-(4)--4-----4-4---4-|-(4)----------4------0-0-0-2------|
|-(2)--2-----2-2---2-|-(2)----------2------------0------|
|--------------------|----------------------------------|
|
|  ~~~
|  Q   E S S E E E E    E      +E  +E  S S E E E S S
|--------------------|----------------------------------|
|------7-9-9-9-7-9---|--9b9.5==(9)r(9)---------7--------|
|------7-9-9-9-7-9-7-|--9b10===(9)r(9)-7-9-9---7-9p7s===|
|--9---------------7-|-----------------------7----------|
|--------------------|----------------------------------|
|--------------------|----------------------------------|


  A5                                           D5      A5B5
  +Q    Q   E   E   E E      +Q         Q      E   E   E E
|--------------------------|-------------------------------|
|--------------------------|-------------------3---3-------|
|--------------------------|-------------------2---2-------|
|-(2)---2---2---2-----2----|-(2)--------2------0---0---2-4-|
|-(0)---0---0---0-----0----|-(0)--------0--------------0-2-|
|--------------------------|-------------------------------|
|
|                                    ~~~~~~
|                                              |--3--|
|  E  E E E S S S S E S. T   +S  S S S +E  S S E E   E E E
|--------------------------|-------------------------------|
|--------------------------|-------------------------------|
|--6--7-6-7-6h7p6---6----6-|-(6)---------------------------|
|-----------------9---9----|-----9---9-(9)-7---9-----7-----|
|--------------------------|-----------------9---9-----9-8-|
|--------------------------|-------------------------------|


                                                      D5        A5    B5
  +Q                 Q      E E   E E   +Q     Q       E   E    E     E
|-------------------------------------|------------------------------------------|
|-------------------------------------|----------------3---3---------------------|
|-------------------------------------|----------------2---2---------------------|
|-(4)----------------4------4-4-----4-|-(4)----4-------0---0----2-----4----------|
|-(2)----------------2------2-2-----2-|-(2)----2----------------0-----2----------|
|-------------------------------------|------------------------------------------|
|
|                    ~~~~
|  S    +S  S   +S  +E  S S E E   E E    Q     Q      +E  +E    S  E     S
|-------------------------------------|------------------------------------------|
|-------------------------------------|---------------------------------10b12====|
|-------------------------------------|------------------------------------------|
|---------------------------7---------|---------------------------[9]------------|
|--8pb9r(8)-7b8r(7)-(7)p5---7-5b6-----|------------------------------------------|
|-------------------------7-------7-7-|-10b11--7b12===(7)-(7)r\------------------|


  B5                                                         D5        A5   B5
   +Q            Q    E  E       E      E    +Q        Q      E   E    E    E
|------------------------------------------|------------------------------------|
|------------------------------------------|------------------3---3-------------|
|------------------------------------------|------------------2---2-------------|
|--(4)-----------4----4--4--------------4--|-(4)-------4------0---0----2----4---|
|--(2)-----------2----2--2--------------2--|-(2)-------2---------------0----2---|
|------------------------------------------|------------------------------------|
|
|                ~~~~~~~~
|                        |-3--|               |--3--|  |-3-|
|  +E    +E      Q   +E  S  S S  E     +E     E   E E  e E e  S S S  S S  S S S
|------------------------7------10b11-(10)-|--x-------10---9h10p9p7----9----7h9p|
|-(10)r-(10)b13-10--(10)---10p7------------|--x--10p7---------------10---10-----|
|------------------------------------------|------------------------------------|
|------------------------------------------|------------------------------------|
|------------------------------------------|------------------------------------|
|------------------------------------------|------------------------------------|


                                                                D5         A5
  +Q           Q        E       E   E      E      +Q    Q        E E  E     E
|-----------------------------------------------|----------------------------------|
|-----------------------------------------------|----------------3-3--3------------|
|-----------------------------------------------|----------------2-2--2------------|
|-(4)----------4--------4-------4----------4----|-(4)---4--------0-0--0-----2------|
|-(2)----------2--------2-------2----------2----|-(2)---2-------------------0------|
|-----------------------------------------------|----------------------------------|
|
|                                                                ~~
|              |--3--|                                  |--3--|
|  S   S  S S  E  E  E  S  E.      +S   S  S  S    Q    E  E  E  Q    S  S  S  S
|--7-----10------10-------12b14---(12)-10-------|-14------------17---14-17---------|
|-----10----8s12----12-10-----------------12-10-|------17-14---------------14-17---|
|-----------------------------------------------|------------16--------------------|
|-----------------------------------------------|----------------------------------|
|-----------------------------------------------|----------------------------------|
|-----------------------------------------------|----------------------------------|


  A5                                                       D5        A5    B5
  +Q    Q        E  E     E     E    +Q         Q            E  E     E    E
|---------------------------------|-------------------------------------------------|
|---------------------------------|--------------------------3--3-------------------|
|---------------------------------|--------------------------2--2-------------------|
|-(2)---2--------2--2-----------2-|--(2)--------2------------0--0-----2----4--------|
|-(0)---0--------0--0-----------0-|--(0)--------0---------------------0----2--------|
|---------------------------------|-------------------------------------------------|
|
|  ~~~                          ~~~~~~~~~
|       |--3--|                                                       |---3---|
|  Q    E  E  E  E.    S  S  S  E    +E   S  S  S  S  S  S  +E.    S  E  E    E
|------14-------17----14----------|------14-------17----17-(17)---14-17------17b19==|
|-17------17-14----------17p14-17-|-(17)----17p14----14-----------------14----------|
|---------------------------------|-------------------------------------------------|
|---------------------------------|-------------------------------------------------|
|---------------------------------|-------------------------------------------------|
|---------------------------------|-------------------------------------------------|


                      A5    B5
   +Q     Q             E    E        E          E    +W
|--------------------------------------------------|------------------------------------|
|--------------------------------------------------|------------------------------------|
|--------------------------------------------------|------------------------------------|
|--(4)----4-------------2----4-------------------4-|--(4)-------------------------------|
|--(2)----2-------------0----2-------------------2-|--(2)-------------------------------|
|--------------------------------------------------|------------------------------------|
|
|              ~~~~~~~
|  +Q    +S    E.      +E    E       +S    E.         +E   E  E  E  S  S  S  S  E  E
|-(17)--(17)r-17pb19==(17)r-17pb19==(17)r-17pb19r==|=(17)-------------------------------|
|-----------------------------------------17pb18r==|=(17)-16----------------------------|
|--------------------------------------------------|---------16-14----------------------|
|--------------------------------------------------|---------------16p15p14-12-14-12----|
|--------------------------------------------------|------------------------------------|
|--------------------------------------------------|------------------------------------|


 Bridge
     B               C#                D
                                       Gtr I
      W                H.      +E. S   W
|------------------|-----------------|-----------------|
|-----4------------|---6-------(6)-6-|-7---------------|
|-----4------------|---6-------(6)-6-|-7---------------|
|-----4------------|---6-------(6)-6-|-7---------------|
|-----2------------|---4-------(4)-4-|-5---------------|
|------------------|-----------------|-----------------|
|
|                                      Gtr II
|            ~~~~~~~~~~~~~
|  a  H     +H        +W               H.      +E.  S
|------------------|-----------------|-----------------|
|------------------|-----------------|-7-------(7)-----|
|-14s16----(16)----|-(16)------------|-7-------(7)-----|
|------------------|-----------------|-7-------(7)-<7>-|
|------------------|-----------------|-5-------(5)-----|
|------------------|-----------------|-----------------|


   +H               Q         Q
|--------------------------------------|
|--(7)--------------7------------------|
|--(7)--------------7------------------|
|--(7)--------------7---------7\-------|
|--(5)--------------5------------------|
|--------------------------------------|
|
|           \0.5__________/        |
|  +Q.     +E      +E    +Q       +E
|--------------------------------------|
|--------------------------------------|
|--------------------------------------|
|-(<7>)---(<7>)---(<7>)-(<7>)----(<7>)-|
|--------------------------------------|
|--------------------------------------|


  B          C#         D                       C#
  Gtrs I, II
  W          W          Q.   E H      +H     Q  Q
|----------|----------|-------------|---------------|
|-4--------|-6--------|-7----7-7----|-(7)----7--6---|
|-4--------|-6--------|-7----7-7----|-(7)----7--6---|
|-4--------|-6--------|-7----7-7----|-(7)----7--6---|
|-2--------|-4--------|-5----5-5----|-(5)----5--4---|
|----------|----------|-------------|---------------|


  B          C#         D                                            C#
  Gtr I
  W          W          W                      +H               Q    Q
|----------|----------|---------------------|----------------------------|
|-4--------|-6--------|-7-------------------|--(7)--------------7----6---|
|-4--------|-6--------|-7-------------------|--(7)--------------7----6---|
|-4--------|-6--------|-7-------------------|--(7)--------------7----6---|
|-2--------|-4--------|-5-------------------|--(5)--------------5----4---|
|----------|----------|---------------------|----------------------------|
|
| Gtr II
|                                               \0.5______/0____|
| W          W          Q  +E.  S   +H         +Q.       +E    +H
|----------|----------|---------------------|----------------------------|
|-4--------|-6--------|-7--(7)-<7>-(<7>)----|-(<7>)-----(<7>)-(<7>)------|
|-4--------|-6--------|-7--(7)-<7>-(<7>)----|-(<7>)-----(<7>)-(<7>)------|
|-4--------|-6--------|-7--(7)--------------|----------------------------|
|-2--------|-4--------|-5--(5)--------------|----------------------------|
|----------|----------|---------------------|----------------------------|


  B          C#         D                             C#
  W          W          W          +H.                Q
|----------|----------|----------|------------------------|
|-4--------|-6--------|-7--------|-(7)----------------6---|
|-4--------|-6--------|-7--------|-(7)----------------6---|
|-4--------|-6--------|-7--------|-(7)----------------6---|
|-2--------|-4--------|-5--------|-(5)----------------4---|
|----------|----------|----------|------------------------|
|
| W          W          W          +E  E    +E  E E E Q
|----------|----------|----------|------------------------|
|-4--------|-6--------|-7--------|-(7)--------------------|
|-4--------|-6--------|-7--------|-(7)-9b10r(9)-9---------|
|-4--------|-6--------|-7--------|-(7)-9b10r(9)-9---------|
|-2--------|-4--------|-5--------|-(5)------------5-5-----|
|----------|----------|----------|--------------------5---|


 Chorus
  A5               B5               F#5
  W                W                W              +W
|----------------|----------------|--------------|--------|
|----------------|----------------|--------------|--------|
|----------------|----------------|--------------|--------|
|-2--------------|-4--------------|--------------|--------|
|-0--------------|-2--------------|-4------------|-(4)----|
|----------------|----------------|-2------------|-(2)----|
|
| Q  H.       a    Q  H.       a    E. S H.        +W
|----------------|----------------|--------------|--------|
|----------------|----------------|--------------|--------|
|----2-------(2)-|----4-------(4)-|--------------|--------|
|-2--2-------(2)-|-4--------------|------4-------|-(4)----|
|-0--------------|-2--------------|----4---------|--------|
|----------------|----------------|-2------------|--------|


  A5             B5                F#5
  W              W                 W              +E  Q  E Q  E E
|--------------|-----------------|--------------|-----------------|
|--------------|-----------------|--------------|-----------------|
|--------------|-----------------|--------------|-----------------|
|-2------------|-4---------------|--------------|-----------------|
|-0------------|-2---------------|-4------------|-(4)-4--x-4--4-0-|
|--------------|-----------------|-2------------|-(2)-2--x-2--2---|
|
|                                                               PM
| E. S H.        E E H.       a    E. S H.         E  Q  E Q  E E
|--------------|-----------------|--------------|-----------------|
|----2-2-------|-----------------|--------------|-----------------|
|----2-2-------|-----4-------(4)-|--------------|-----------------|
|-2----2-------|---4-------------|------4-------|-----4--x-4--4---|
|-0----0-------|-2---------------|----4---------|--4-------4--4-0-|
|--------------|-----------------|-2------------|--2-------2--2---|


  A5             B5                   F#5
                                                     PM
  W              W                     Q  E E  E E E E    Q  E E +E +E    E  E
|--------------|--------------------|------------------|-----------------------|
|--------------|--------------------|------------------|-----------------------|
|--------------|--------------------|------------------|-----------------------|
|-2------------|-4------------------|------------------|-----------------------|
|-0------------|-2------------------|--4--4-x--4-4---4-|--4--4-4-(4)(4)\--x--x-|
|--------------|--------------------|--2--2-x--2-2---2-|--2--2-2-(2)(2)\--x--x-|
|
|                    ~~~~~~~~~
| E. S H.        E E H    +S   E  S    H       H          H       E  E    E  E
|--------------|--------------------|------------------|-----------------------|
|--------------|--------------------|------------------|-----------------------|
|------2-------|-----4----(4)-(0)-x-|------------------|-----------------------|
|-2--2---------|---4----------(0)-x-|--7-------6-------|--4--------------------|
|-0------------|-2------------------|------------------|-----------------------|
|--------------|--------------------|--5-------4-------|--2-------0--1----2--4-|
|
| Gtr III
| W              W                     H       H          H       E  E    E  E
|--------------|--------------------|------------------|-----------------------|
|--------------|--------------------|------------------|-----------------------|
|--------------|--------------------|-14------13-------|-11-------9s11---11s14-|
|--------------|--------------------|------------------|-----------------------|
|--------------|--------------------|-12------11-------|--9-------7s=9----9s12-|
|--------------|--------------------|------------------|-----------------------|


  A5                             B5
  Gtrs I, II
   W                              W
|------------------------------|---------------------|
|------------------------------|---------------------|
|------------------------------|---------------------|
|--2---------------------------|--4------------------|
|--0---------------------------|--2------------------|
|------------------------------|---------------------|
|
| Gtr III
|  ~~~~~~~~~~~~~~~~~~~~~~~~~      ~~~~~~~~~~~~~~   PM
|      |--3--|          |-3--|
|  Q   E  E  E  E E    +E  E E    Q   E  E  +Q   E E
|------------------------------|---------------------|
|--------10--------------------|-----10--------------|
|-11--11----11-11--------------|-11-----11-(11)------|
|-----------------9b11r(9)p7---|---------------------|
|----------------------------9-|-----------------9-9-|
|------------------------------|---------------------|


  A5                  B5
   W                   W
|-------------------|--------------------|
|-------------------|--------------------|
|-------------------|--------------------|
|--2----------------|--4-----------------|
|--0----------------|--2-----------------|
|-------------------|--------------------|
|
|  ~~~~~~~~~~~~        ~~~~~~~~~~~~
|  Q   E  E  Q  E E    Q   E  E  Q  E E
|-------------------|--------------------|
|-----10------------|-----10-------------|
|-11-----11-11------|-11-----11-11-------|
|---------------9---|---------------9----|
|-----------------9-|-----------------9--|
|-------------------|--------------------|


  A5                      B5 A5 B5 A5 B5 A5      F#5E5
   W                       E  E  E  E  E  E       E  E
|-----------------------|------------------------------|
|-----------------------|------------------------------|
|-----------------------|-----2--4--2--4--2------------|
|--2--------------------|--4--2--4--2--4--2-------4--2-|
|--0--------------------|--2----------------------4--2-|
|-----------------------|----------------------------0-|
|
|  ~~~~~~~~~~~~~~
|  Q   E  E  +E  E  E E    E  E  E  E  E  E       E  E
|-----------------------|------------------------------|
|-----10----------------|----14-16-14-16-14b14.5-------|
|-11-----11-(11)---11---|-11-14-16-14-16-14b14.5-------|
|-----------------------|------------------------16-14-|
|----------------9----9-|------------------------------|
|-----------------------|------------------------------|


 Chorus
  F#5       E5 F#5E5 F#5       A5 B5 A5 B5 A5      F#5E5
                   PM
   Q   q     E  E  E  E    +E   E  E  E  E  E       E  E
|-----------------------|--------------------------------|
|-----------------------|--------------------------------|
|-----------------------|-------2--4--2--4--2------------|
|------4-----2--4--2--4-|--(4)--2--4--2--4--2-------4--2-|
|--4---4-----2--4--2--4-|--(4)----------------------4--2-|
|--2--------------------|--------------------------------|
|
|  ~~                 ~~~~~~~~~
|  Q   E  E  E  E  E  E    +E   E  E  E  E  E       E  E
|-----------------------|--------------------------------|
|-----------16----------|------14-16-14-16---------------|
|-----14----16----------|------14-16-14-16-14b14.5-------|
|-16--14-16----16-16-16-|-(16)---------------------16-14-|
|-----------------------|--------------------------------|
|-----------------------|--------------------------------|


  F#5                          A5 B5 A5 B5 A5 F#5E5
   Q   Q     E  E  E  E    +E   E  E  E  E  E  E  E
|-----------------------|----------------------------|
|-----------------------|----------------------------|
|-----------------------|-------2--4--2--4--2--------|
|-----------------------|-------2--4--2--4--2--4--2--|
|--4---4-----x--4-----4-|--(4)-----------------4--2--|
|--2---2-----x--2-----2-|--(2)-----------------------|
|
|  ~~                 ~~~~~~~~~
|  Q   E  E  E  E  E  E    +E   E  E  E  E  E  E  E
|-----------------------|----------------------------|
|-----------16-14-------|---------14----16-14--------|
|-----14----16-14-14----|---------14----16-14--------|
|-16--14-16----------16-|-(16)-16----16-------16-14--|
|-----------------------|----------------------------|
|-----------------------|----------------------------|


  F#5       E5 F#5E5 F#5       A5 B5 A5 B5 A5      F#5E5
                   PM
   Q   q     E  E  E  E    +E   E  E  E  E  E       E  E
|-----------------------|--------------------------------|
|-----------------------|--------------------------------|
|-----------------------|-------2--4--2--4--2------------|
|------4-----2--4--2--4-|--(4)--2--4--2--4--2-------4--2-|
|--4---4-----2--4--2--4-|--(4)----------------------4--2-|
|--2--------------------|--------------------------------|
|
|  ~~                 ~~~~~~~~~
|  Q   E  E  E  E  E  E    +E   E  E  E  E  E       E  E
|-----------------------|--------------------------------|
|-----14----------------|---------16----16---------------|
|-----14----16-14-------|------14-16-14-16-14b14.5-------|
|-16-----16-------16-16-|-(16)-14------------------16-14-|
|-----------------------|--------------------------------|
|-----------------------|--------------------------------|


  F#5                               A5B5 A5 B5 A5 F#5        E5
   Q   Q     E  E  E  E         +E  E  E  E  E  E  E          E
|----------------------------|----------------------------------|
|----------------------------|----------------------------------|
|----------------------------|------2--4--2--4--2---------------|
|----------------------------|------2--4--2--4--2--4----------2-|
|--4---4-----x--4-----4------|--(4)----------------4----------2-|
|--2---2-----x--2-----2------|--(2)-----------------------------|
|
|  ~~
|  Q   E  E  E  E  E  E         +Q     E  E  E  E  S     +S   E
|----------------------------|----------------------------------|
|-----------16-14----16b16.5-|-(16)---16-14-16-14-16b17r(16)-14-|
|-----14----16-14----16b16.5-|-(16)---16-14-16-14-16b17r(16)-14-|
|-16-----16-------16---------|----------------------------------|
|----------------------------|----------------------------------|
|----------------------------|----------------------------------|


  F#5          E5    F#5E5 F#5             A5B5    A5      B5   A5 F#5E5
                         PM
   Q      q     E     E  E  E         +E   E  E      E       E   E  E  E
|----------------------------------|-------------------------------------|
|----------------------------------|-------------------------------------|
|----------------------------------|-------2--4------2-------4---2-------|
|---------4-----2-----4--2--4------|--(4)--2--4------2-------4---2--4--2-|
|--4------4-----2-----4--2--4------|--(4)---------------------------4--2-|
|--2-------------------------------|-------------------------------------|
|
|                           ~~~~~~~~~~~~~~~
|  Q      E  E  E     E  E  E         +Q      E     +E      +E   E  E  E
|--------14----------14------------|---------17b19r(17)b19-(17)-17-14----|
|-17b19-----14-17b19----14-17pb19==|=(17)r----------------------------14-|
|----------------------------------|-------------------------------------|
|----------------------------------|-------------------------------------|
|----------------------------------|-------------------------------------|
|----------------------------------|-------------------------------------|


  F#5                                     A5 B5    A5      B5   A5 F#5E5
   Q      Q     E     E  E  E        +E    E  E      E       E   E  E  E
|---------------------------------|---------------------------------------|
|---------------------------------|---------------------------------------|
|---------------------------------|--------2--4------2-------4---2--------|
|---------------------------------|--------2--4------2-------4---2--4--2--|
|--4------4-----x-----4-----4-----|--(4)----------------------------4--2--|
|--2------2-----x-----2-----2-----|--(2)----------------------------------|
|
|                           ~~~~~~~~~~~~~~
|  Q      E  E  E     E  E  E        +E    E  E     +E      +E   E  E  E
|--------14----------14-----------|-------14-17b19r(17)b19-(17)-17-14-----|
|-17b19-----14-17b19----14-17b19==|=(17)r-----------------------------14--|
|---------------------------------|---------------------------------------|
|---------------------------------|---------------------------------------|
|---------------------------------|---------------------------------------|
|---------------------------------|---------------------------------------|


  F#5          E5    F#5E5 F#5            A5 B5    A5      B5   A5 F#5E5
                         PM
   Q      q     E     E  E  E        +E    E  E      E       E   E  E  E
|---------------------------------|--------------------------------------|
|---------------------------------|--------------------------------------|
|---------------------------------|--------2--4------2-------4---2-------|
|---------4-----2-----4--2--4-----|--(4)---2--4------2-------4---2--4--2-|
|--4------4-----2-----4--2--4-----|--(4)----------------------------4--2-|
|--2------------------------------|--------------------------------------|
|
|                           ~~~~~~~~~~~~~~
|  Q      E  E  E     E  E  E        +E    E  E     +E      +E   E  E  E
|--------14----------14-----------|-------14-17b19r(17)b19-(17)-17-14----|
|-17b19-----14-17b19----14-17b19==|=(17)r-----------------------------14-|
|---------------------------------|--------------------------------------|
|---------------------------------|--------------------------------------|
|---------------------------------|--------------------------------------|
|---------------------------------|--------------------------------------|


  F#5                                         A5    B5 A5 B5 A5    F#5E5
   Q      Q        E       E      E  E    +E   E     E  E  E  E     E  E
|--------------------------------------|---------------------------------|
|--------------------------------------|---------------------------------|
|--------------------------------------|-------2-----4--2--4--2----------|
|--------------------------------------|-------2-----4--2--4--2-----4--2-|
|--4------4--------x-------4---------4-|--(4)-----------------------4--2-|
|--2------2--------x-------2---------2-|--(2)----------------------------|
|
|                                    ~~~~~~~~~
|  Q      E  S  S  E      +S   S  E  E    +E   E  a  E  E  E  E     E  E
|--------14----------------------------|---------------------------------|
|-17b19-----17-14----------------------|---------------------------------|
|-----------------16pb17r(16)-14-------|---------------------------------|
|--------------------------------16-16-|-(16)-14-------------------------|
|--------------------------------------|---------16s14-12-14-12b13-------|
|--------------------------------------|---------------------------14-12-|


  F#5
   Q.       +E   H        Wx4
|-----------------------|--------*|
|-----------------------|--------*|
|-----------------------|--------*|
|-----------------------|--------*|
|--4--------(4)\--------|--------*|
|--2--------(2)\--------|--------*|
|
|  ~~~~~~~~~~
|  Q    +Q       E E Q    Wx4
|-----------------------|--------*|
|-----------------------|--------*|
|-----------------------|--------*|
|-----------------------|--------*|
|-----------------------|--------*|
|-14---(14)s=====1h2-2--|--------*|




--------------------------------------------------------------------------------


Duration Legend
---------------
W - whole; H - half; Q - quarter; E - 8th; S - 16th; T - 32nd; X - 64th; a - acciaccatura
+ - note tied to previous; . - note dotted; .. - note double dotted
Uncapitalized letters represent notes that are staccato (1/2 duration)
Irregular groupings are notated above the duration line
Duration letters will always appear directly above the note/fret number it represents the
duration for.  Duration letters with no fret number below them represent rests.  Multi-
bar rests are notated in the form Wxn, where n is the number of bars to rest for.  Low
melody durations appear below the staff

Tablature Legend
----------------
 h   - hammer-on
 p   - pull-off
 b   - bend
 pb  - pre-bend
 r   - bend release (if no number after the r, then release immediately)
 /\  - slide into or out of (from/to "nowhere")
 s   - legato slide
 S   - shift slide
 - natural harmonic
[n]  - artificial harmonic
n(n) - tapped harmonic
 ~   - vibrato
 tr  - trill
 T   - tap
 TP  - trem. picking
 PM  - palm muting
\n/  - tremolo bar dip; n = amount to dip
 \n  - tremolo bar down
 n/  - tremolo bar up
/n\  - tremolo bar inverted dip
 =   - hold bend; also acts as connecting device for hammers/pulls
 <> - volume swell (louder/softer)
 x   - on rhythm slash represents muted slash
 o   - on rhythm slash represents single note slash

Misc Legend
-----------
 |  - bar
||  - double bar
||o - repeat start
o|| - repeat end
*|  - double bar (ending)
 :  - bar (freetime)
 $  - Segno
 &  - Coda
Tempo markers -  = BPM(8/16=s8/s16), where s8 = swing 8ths, s16 = swing 16ths

Related for You Could Be Mine tab
You Could Be Mine chords by Guns N Roses