Song name
# A B C D E F G H I J K L M N O P Q R S T U V W X Y Z

Guns Up - How Its Done tab

Help us improve GuitareTab! Take a short survey!
Artist: Guns Up!
Song: How It's Done
Tuning: DADGBE (Low to High)


Guitar 1 and 2
E--------------------------------------------------------------------|
B--------------------------------------------------------------------|
G--------------------------------------------------------------------|
D--66-665-033-335-566-665-0-7--8---7---------------------------------|
A--66-665-033-335-566-665-0-5--6---5---------------------------------| x4
D--66-665-033-335-566-665-0--00--00----------------------------------|
                             ..  ..
E--------------------------------------------------------------------|
B--------------------------------------------------------------------|
G--------------------------------------------------------------------|
D--------------------------------------------------------------------|
A--6665553335556530-6665550~-----------------------------------------| X2
D--6665553335556530-6665550~-----------------------------------------|

E--------------------------------------------------------------------|
B--------------------------------------------------------------------|
G--------------------------------------------------------------------|
D--------------------------------------------------------------------|
A--6665553335-6530-6665550~------------------------------------------| x2
D--6665553335-6530-6665550~------------------------------------------|

E--------------------------------------------------------------------|
B--------------------------------------------------------------------|
G--------------------------------------------------------------------|
D-6-55-xxx--3-55-xxx-------------------------------------------------|
A-6-55-xxx--3-55-xxx-0-0000000000000---------------------------------| x3
D-6-55-xxx--3-55-xxx-0-0000000000000---------------------------------|
                       .............
E--------------------------------------------------------------------|
B--------------------------------------------------------------------|
G--------------------------------------------------------------------|
D-6-55--3-55-0~------------------------------------------------------|
A-6-55--3-55-0~------------------------------------------------------| X1
D-6-55--3-55-0~------------------------------------------------------|

Listen to this next part to understand it better. It switches off between each guitar.
Guitar 1
E--------------------------------------------------------------------|
B--------------------------------------------------------------------|
G--------------------------------------------------------------------|
D--------------------------------------------------------------------|
A--333666350~--------------------------------------------------------|
D--333666350~--------------------------------------------------------|

Guitar 2
E--------------------------------------------------------------------|
B--------------------------------------------------------------------|
G--------------------------------------------------------------------|
D--------------------------------------------------------------------|
A-------------------------------333666350~---------------------------|
D-------------------------------333666350~---------------------------|

Guitar 1
E--------------------------------------------------------------------|
B--------------------------------------------------------------------|
G--------------------------------------------------------------------|
D--------------------------------------------------------------------|
A--333-666-3-5-0~----------------------------------------------------|
D--333-666-3-5-0~----------------------------------------------------|

Guitar 2
E--------------------------------------------------------------------|
B--------------------------------------------------------------------|
G--------------------------------------------------------------------|
D--------------------------------------------------------------------|
A-------------------------------333666350----------------------------|
D-------------------------------333666350----------------------------|

This part both guitars come back in after guitar two plays the part above.
Guitar 1 and 2
E--------------------------------------------------------------------|
B--------------------------------------------------------------------|
G--------------------------------------------------------------------|
D--------------------------------------------------------------------|
A------------------------------------------00--00--------------------|
D------------------------------------------00--00--------------------|

E--------------------------------------------------------------------|
B--------------------------------------------------------------------|
G--------------------------------------------------------------------|
D--------------------------------------------------------------------|
A--3336663500000000--------------------------------------------------| X3
D--3336663500000000--------------------------------------------------|

E--------------------------------------------------------------------|
B--------------------------------------------------------------------|
G--------------------------------------------------------------------|
D--------------------------------------------------------------------|
A--333666350---------------------------------------------------------|
D--333666350---------------------------------------------------------|
Related for How Its Done tab