Song name
# A B C D E F G H I J K L M N O P Q R S T U V W X Y Z

Guns Up - You Break tab

Artist: Guns Up!
Song: You Break
Album: Outlive
tabbed by dangerfall

verse 

E|-------------------------|
B|-------------------------|
G|-------------------------|
D|0-00-3-0034-44-6-634-----|
A|0-00-3-0034-44-6-634-----|
D|0-00-3-0034-44-6-634-----|


chorus

          1st and 3r 
E|--------|------------|
B|--------|------------|
G|--------|------------|
D|4-03~---|013---------|
A|4-03~---|013---------|
D|4-03~---|013---------|

on the 4th 

E|-------------|
B|-------------|
G|-------------|
D|4-03---------|
A|4-03---------|
D|4-03-33333333|
       ........

Then guitar1 does

E|---------------------|
B|---------------------|
G|---------------------|
D|0-----3-----34-----6-|
A|0-----3-----34-----6-|
D|0-00003-000034-00006-|
    ....  ....   ....


the end part from 2nd chorus

E|-------------------|
B|-------------------|
G|-------------------|
D|4-03---04643-------|
A|4-03---04643-------|
D|4-03---04643-------|


outro

E|--------------------|
B|--------------------|
G|--------------------|
D|3-04643-------------|
A|3-04643-------------|
D|3-04643-------------|


I think that through this you can catch the rythm easily
It sounds good to me but it might have some flaws,feel free to 
correct or leave an opinion
Tap to rate this tab
 
# A B C D E F G H I J K L M N O P Q R S T U V W X Y Z