Song name
# A B C D E F G H I J K L M N O P Q R S T U V W X Y Z

Guns Up - Outlive tab

Artist: Guns Up!
Song: Outlive
Album: Outlive
tabbed by dangerfall



E|-----------------------------------------|
B|-----------------------------------------|
G|-----------------------------------------|
D|13-333-313-343-313-333-3-----------------|
A|13-333-313-343-313-333-3-----------------|
D|13-333-313-343-313-333-3-1111111111111111|
                           ...............

E|----------------------|
B|----------------------|
G|----------------------|
D|1~---------1~---------|
A|1~---------1~---------|
D|1~---------1~---------|


  3x                               
E|--------------------------------|------------------|
B|--------------------------------|------------------| this last part changes
G|--------------------------------|------------------| a bit but you get it 
D|1/3---3-----------1-3-4-3-------|1-1-1-1-1/4-4-4-4-| easily
A|1/3---3-----------1-3-4-3-------|1-1-1-1-1/4-4-4-4-| 
D|1/3-0-3-0-0-0-0-0-1-3-4-3-0-0-0-|1-1-1-1-1/4-4-4-4-|
      .   . . . . .         . . . 


E|--------------------------------|
B|--------------------------------|
G|--------------------------------|
D|1~---------1~---------4-4-4-3---|
A|1~---------1~---------4-4-4-3---|
D|1~---------1~---------4-4-4-3---|



This is my interpretation of the song by listening
Might not be 100% accurate.
Tap to rate this tab
# A B C D E F G H I J K L M N O P Q R S T U V W X Y Z