Song name
# A B C D E F G H I J K L M N O P Q R S T U V W X Y Z

Guns Up - Wont Change For Me tab

Help us improve GuitareTab! Take a short survey!
Artist: Guns Up!
Song: Won't Change For Me
Album: Outlive
tabbed by dangerfall

E|----------------------------------------------------|
B|----------------------------------------------------|
G|----------------------------------------------------|
D|0------01-3-0------04-1-0------01-3-----6-6-----4-1-|
A|0------01-3-0------04-1-0------01-3-----6-6-----4-1-|
D|0------01-3-0------04-1-0------01-3-00006-6-00004-1-|
                                      ....    ....

                           1.,3.    2.       4.
E|------------------------|--------|--------|----------|
B|------------------------|--------|--------|----------|
G|------------------------|--------|--------|----------|
D|0-----3-3-6---1-1-4-----|4---4---|4-5-3-1-|4---3---1-|
A|0-----3-3-6---1-1-4-----|4---4---|4-5-3-1-|4---3---1-|
D|0---0-3-3-6-0-1-1-4-0-0-|4-0-4-0-|4-5-3-1-|4---3---1-|
      .       .       . .    .   .           .   .   .

E|-------------------|
B|-------------------|
G|-------------------|
D|0~-----------------|
A|0~-----------------|
D|0~-----------------|

E|----------------------------|
B|----------------------------|
G|----------------------------|
D|0---003---0-1---0-----------|
A|0---003---0-1---0-----------|
D|0---003---0-1---0-----------|
                 

E|----------------------------|
B|----------------------------|
G|----------------------------|
D|0---003---0-1---0-----------|
A|0---003---0-1---0-----------|
D|0---003---0-1---0---0-0-0-0-|
                      . . . .

E|----------------------------|
B|----------------------------|
G|----------------------------|
D|0---3---0-1---0-----------0-|
A|0---3---0-1---0-----------0-|
D|0---3---0-1---0---0-0-0-0-0-|
                    . . . .  
Related for Wont Change For Me tab