Song name
# A B C D E F G H I J K L M N O P Q R S T U V W X Y Z

Guns Up - Test My Will tab

Artist: Guns Up!
Song: Test My Will
Album: Outlive
tabbed by dangerfall

E|--------------------------------|--------------------------------|
B|--------------------------------|--------------------------------|
G|--------------------------------|--------------------------------|
D|0-------6---4-3---3-3---3-3-3---|0-------6---4-3---3-3---1-3-4---|
A|0-------6---4-3---3-3---3-3-3---|0-------6---4-3---3-3---1-3-4---|
D|0---0-0-6---4-3---3-3---3-3-3---|0---0-0-6---4-3---3-3---1-3-4---|
      . .                              . .

E|----------------------|
B|----------------------|
G|----------------------|
D|0~--------------0-1-3-|
A|0~--------------0-1-3-|
D|0~--------------0-1-3-|

E|-------------------------------------------------------|
B|-------------------------------------------------------|
G|-------------------------------------------------------|
D|0-------3-----0-----------3-0-------3-----0-------34-3-|
A|0-------3-----0-----------3-0-------3-----0-------34-3-|
D|0---0-0-3---0-0---0-0-0-0-3-0---0-0-3---0-0---0-0-34-3-|
      . .     .     . . . .       . .     .     . .

E|----------------------------------|--------------------------------|
B|----------------------------------|--------------------------------|
G|----------------------------------|--------------------------------|
D|0---0-3-4-3-1-------1-------1/4---|0---0-3-4-3-1-------1---3-4---3-|
A|0---0-3-4-3-1-------1-------1/4---|0---0-3-4-3-1-------1---3-4---3-|
D|0---0-3-4-3-1---1-1-1---1-1-1/4---|0---0-3-4-3-1---1-1-1---3-4---3-|
                  . .     . .                        . .


E|--------------------------------|
B|--------------------------------|
G|--------------------------------|
D|0-----3-1-----------1-3-4-3---3-|
A|0-----3-1-----------1-3-4-3---3-|
D|0-0-0-3-1-1-1-1-1-1-1-3-4-3-0-3-|
    . .     . . . . .         .

E|--------------------------------|
B|--------------------------------|
G|--------------------------------|
D|0~------------------------------|
A|0~-----------------(pick-slide)-|
D|0~-----------------(pick-slide)-|
Tap to rate this tab
 
# A B C D E F G H I J K L M N O P Q R S T U V W X Y Z