Song name
# A B C D E F G H I J K L M N O P Q R S T U V W X Y Z

Guns Up - To An End tab

i just started listening to guns up but they are nasty

songs in dropped D
~ slide
e------------------------------------------------------------------------|
b------------------------------------------------------------------------|
g------------------------------------------------------------------------|
d--0------00--8~------3----0---------------------------------------------|
a--0------00--8~------3----0---------------------------------------------|
e--0------00--8~------3----0---------------------------------------------|


e---------------------------------------------------------------|
b --------------------------------------------------------------|
g --------------------------------------------------------------|
d --0-----00--8~-----3~---1 1~---3-0----------------------------|
a --0-----00--8~-----3~---1 1~---3-0----------------------------|
d --0-----00--8~-----3~---1 1~---3-0----------------------------|

e------------------------------------------------------------------------|
b------------------------------------------------------------------------|
g------------------------------------------------------------------------|
d--0------00--8~------3----0---------------------------------------------|
a--0------00--8~------3----0---------------------------------------------|
e--0------00--8~------3----0---------------------------------------------|

e------------------------------------------------------------------------|
b -----------------------------------------------------------------------|
g -----------------------------------------------------------------------|
d --0-----00--8~-----3~---1 1~---3-0-------------------------------------|
a --0-----00--8~-----3~---1 1~---3-0--rings out--------------------------|
d --0-----00--8~-----3~---1 1~---3-0-------------------------------------|


timing is easy as hell to fingure out hope u enjoy
Tap to rate this tab
 
# A B C D E F G H I J K L M N O P Q R S T U V W X Y Z