Song name
# A B C D E F G H I J K L M N O P Q R S T U V W X Y Z

Guru Josh Project - Infinity 2008 tab

This is the main sax jam that is played throughout the song.

http://www.myspace.com/gurujoshproject

E-8/10/11~~~~-8/10~~~~-8/10~~~~-6/8~~~~-|
B---------------------------------------|
G---------------------------------------|
D---------------------------------------|
A---------------------------------------|
E---------------------------------------|

The chords

E-3-----3-----2-----1-|
B-4-----3-----3-----1-|
G-5-----3-----4-----2-|
D-5-----5-----4-----3-|
A-3-----5-----2-----3-|
E-------3-----------1-|

Bass

G---------------------------------------|
D---------------------------------------|
A-xxxxxxxx6~~~~-3/5~~~~-3/5~~~~-1/3~~~~-|
E---------------------------------------|

:)
Tap to rate this tab
# A B C D E F G H I J K L M N O P Q R S T U V W X Y Z