Song name
# A B C D E F G H I J K L M N O P Q R S T U V W X Y Z

Gus G - I Am The Fire tab

Tabbed by: Joshua Garcia (joshuag523@aol.com)

Tabs for the song: I Am The Fire by Gus G
Please rate and let me know if you have any corrections. Thank you.


Tuning: D Tuning (D G C F A D)


Intro
Guitar 1/2:
D||--------------------------------------------------------------|
A||--------------------------------------------------------------|
F||--------------------------------------------------------------|
C||--x-6--6--6--6-------------------6--6--6--6-------------------|
G||--x-6--6--6--6--------4-6-7-6-4--6--6--6--6--------4-6-4------|
D||--x-4--4--4--4--7-6-7------------4--4--4--4--7-6-7-------7-6--|


D||------------------------------------------------------------|
A||------------------------------------------------------------|
F||------------------------------------------------------------|
C||--2--2--2--2----------1-2-1----4--4--4--4----------1--------|
G||--2--2--2--2--2-1-2-4-------4--4--4--4--4--2-1-2-4---4-2-1--|
D||--0--0--0--0-------------------2--2--2--2-------------------|


Guitar 1:
D||------------------------------------------------------------|
A||------------------------------------------------------------|
F||------------------------------------------------------------|
C||--6--6--6--6-------------------6--6--6--6-------------------|
G||--6--6--6--6--------4-6-7-6-4--6--6--6--6--------4-6-4------|
D||--4--4--4--4--7-6-7------------4--4--4--4--7-6-7-------7-6--|


D||------------------------------------------------------------|
A||------------------------------------------------------------|
F||------------------------------------------------------------|
C||--2--2--2--2----------1-2-1----4--4--4--4----------1--------|
G||--2--2--2--2--2-1-2-4-------4--4--4--4--4--2-1-2-4---4-2-1--|
D||--0--0--0--0-------------------2--2--2--2-------------------|


Guitar 2:
D||------------------------------------------------------------|
A||----------------------4-5-4------------------------4--------|
F||--------------4-3-4-6-------6--------------4-3-4-6---6-4-3--|
C||--6--6--6--6-------------------6--6--6--6-------------------|
G||--6--6--6--6-------------------6--6--6--6-------------------|
D||--4--4--4--4-------------------4--4--4--4-------------------|


D||------------------------------------------------------------|
A||----------------------4-5-4------------------------4--------|
F||--------------4-3-4-6-------6--------------4-3-4-6---6-4-3--|
C||--2--2--2--2-------------------4--4--4--4-------------------|
G||--2--2--2--2-------------------4--4--4--4-------------------|
D||--0--0--0--0-------------------2--2--2--2-------------------|



Verse
Guitar 1/2:
D||----------------------------------|-----------------------------------|
A||----------------------------------|-----------------------------------|
F||----------------------------------|-----------------------------------|
C||----------------------------------|-----------------------------------|
G||----------------------------2-----|--------------------2-----1--------|
D||--2h4-4-4-4-4-4-4-4-4-4-4-4---4-2-|--2h4-4-4-4-4-4-4-4---4-2---2-0-2--|
         . . . . . . . . . . .   . .        . . . . . . .   . .   . . .

D||----------------------------------|-----------------------------------|
A||----------------------------------|-----------------------------------|
F||----------------------------------|-----------------------------------|
C||----------------------------------|-----------------------------------|
G||----------------------------2\1---|-----------------------------------|
D||--2h4-4-4-4-4-4-4-4-4-4-4-4-----4-|--2-2-2-2-2-2-2-2-2-2-2-2-2-2-0h2--|
         . . . . . . . . . . .     .    . . . . . . . . . .


D||----------------------------------|-----------------------------------|
A||----------------------------------|-----------------------------------|
F||----------------------------------|-----------------------------------|
C||----------------------------------|-----------------------------------|
G||----------------------------2-----|--------------------2-----1--------|
D||--2h4-4-4-4-4-4-4-4-4-4-4-4---4-2-|--2h4-4-4-4-4-4-4-4---4-2---2-0-2--|
         . . . . . . . . . . .   . .        . . . . . . .   . .   . . .

D||----------------------------------|
A||----------------------------------|
F||----------------------------------|
C||----------------------------------|
G||----------------------------2\1---|
D||--2h4-4-4-4-4-4-4-4-4-4-4-4-----4-|
         . . . . . . . . . . .     .


Guitar 1:
D||-----------------------------------|
A||-----------------------------------|
F||-----------------------------------|
C||-----------------------------------|
G||-----------------------------------|
D||--4-4-4-4-4-4-4-4-4-4-4-4-4-4-4-4--|
     . . . . . . . .


Guitar 2:
D||--------------------------------|
A||--------------------------------|
F||--------------------------------|
C||--------------------------------|
G||--------------------------------|
D||--4-4-4-4-4-4-4-4-4-4-4-4-//\\--|
     . . . . . . . .


Pre-Chorus
Guitar 1/2:
D||-------------------------------------|
A||-------------------------------------|
F||-------------------------------------|
C||-------------------------------------| x2
G||--4-6-6-6-4-6-6-4-6b7r6-4-6---6---6--|
D||-------------------------------------|


Guitar 1:
D||--------------------------------------------------------------|
A||--------------------------------------------------------------|
F||------------------------------------9~-----3h4p3--------------|
C||------------------------------------9~-----------6-4----------|
G||--4-6-6-6-4-6-6-4-6b7r6-4-6---6---x-7~---------------6-4------|
D||----------------------------------x----------------------7-6--|
                                                        . . . .

Guitar 2:
D||-----------------------------------------------|
A||-----------------------------------------------|
F||------------------------------------9~-----11--|
C||--6-8-8-8-6-8-8-6-8b9r8-6-8---8-----9~-----11--|
G||----------------------------------x-7~-----9---|
D||----------------------------------x------------|



Chorus
Guitar 1/2:
D||------------------------------------------------------------|
A||------------------------------------------------------------|
F||------------------------------------------------------------|
C||--6--6--6--6-------------------6--6--6--6-------------------|
G||--6--6--6--6--------4-6-7-6-4--6--6--6--6--------4-6-4------|
D||--4--4--4--4--7-6-7------------4--4--4--4--7-6-7-------7-6--|


D||------------------------------------------------------------|
A||------------------------------------------------------------|
F||------------------------------------------------------------|
C||--2--2--2--2----------1-2-1----4--4--4--4----------1--------|
G||--2--2--2--2--2-1-2-4-------4--4--4--4--4--2-1-2-4---4-2-1--|
D||--0--0--0--0-------------------2--2--2--2-------------------|


Guitar 1:
D||------------------------------------------------------------|
A||------------------------------------------------------------|
F||------------------------------------------------------------|
C||--6--6--6--6-------------------6--6--6--6-------------------|
G||--6--6--6--6--------4-6-7-6-4--6--6--6--6--------4-6-4------|
D||--4--4--4--4--7-6-7------------4--4--4--4--7-6-7-------7-6--|


D||------------------------------------------------------------|
A||------------------------------------------------------------|
F||------------------------------------------------------------|
C||--2--2--2--2----------1-2-1----4--4--4--4----------1--------|
G||--2--2--2--2--2-1-2-4-------4--4--4--4--4--2-1-2-4---4-2-1--|
D||--0--0--0--0-------------------2--2--2--2-------------------|


Guitar 2:
D||------------------------------------------------------------|
A||----------------------4-5-4------------------------4--------|
F||--------------4-3-4-6-------6--------------4-3-4-6---6-4-3--|
C||--6--6--6--6-------------------6--6--6--6-------------------|
G||--6--6--6--6-------------------6--6--6--6-------------------|
D||--4--4--4--4-------------------4--4--4--4-------------------|


D||------------------------------------------------------------|
A||----------------------4-5-4------------------------4--------|
F||--------------4-3-4-6-------6--------------4-3-4-6---6-4-3--|
C||--2--2--2--2-------------------4--4--4--4-------------------|
G||--2--2--2--2-------------------4--4--4--4-------------------|
D||--0--0--0--0-------------------2--2--2--2-------------------|



Verse
Guitar 1/2:
D||----------------------------------|-----------------------------------|
A||----------------------------------|-----------------------------------|
F||----------------------------------|-----------------------------------|
C||----------------------------------|-----------------------------------|
G||----------------------------2-----|--------------------2-----1--------|
D||--2h4-4-4-4-4-4-4-4-4-4-4-4---4-2-|--2h4-4-4-4-4-4-4-4---4-2---2-0-2--|
         . . . . . . . . . . .   . .        . . . . . . .   . .   . . .

D||----------------------------------|-----------------------------------|
A||----------------------------------|-----------------------------------|
F||----------------------------------|-----------------------------------|
C||----------------------------------|-----------------------------------|
G||----------------------------2\1---|-----------------------------------|
D||--2h4-4-4-4-4-4-4-4-4-4-4-4-----4-|--2-2-2-2-2-2-2-2-2-2-2-2-2-2-0h2--|
         . . . . . . . . . . .     .    . . . . . . . . . .


D||----------------------------------|-----------------------------------|
A||----------------------------------|-----------------------------------|
F||----------------------------------|-----------------------------------|
C||----------------------------------|-----------------------------------|
G||----------------------------2-----|--------------------2-----1--------|
D||--2h4-4-4-4-4-4-4-4-4-4-4-4---4-2-|--2h4-4-4-4-4-4-4-4---4-2---2-0-2--|
         . . . . . . . . . . .   . .        . . . . . . .   . .   . . .

D||----------------------------------|
A||----------------------------------|
F||----------------------------------|
C||----------------------------------|
G||----------------------------2\1---|
D||--2h4-4-4-4-4-4-4-4-4-4-4-4-----4-|
         . . . . . . . . . . .     .


Guitar 1:
D||-----------------------------------|
A||-----------------------------------|
F||-----------------------------------|
C||-----------------------------------|
G||-----------------------------------|
D||--4-4-4-4-4-4-4-4-4-4-4-4-4-4-4-4--|
     . . . . . . . .


Guitar 2:
D||--------------------------------|
A||--------------------------------|
F||--------------------------------|
C||--------------------------------|
G||--------------------------------|
D||--4-4-4-4-4-4-4-4-4-4-4-4-//\\--|
     . . . . . . . .


Pre-Chorus
Guitar 1/2:
D||-------------------------------------|
A||-------------------------------------|
F||-------------------------------------|
C||-------------------------------------| x2
G||--4-6-6-6-4-6-6-4-6b7r6-4-6---6---6--|
D||-------------------------------------|


Guitar 1:
D||--------------------------------------------------------------|
A||--------------------------------------------------------------|
F||------------------------------------9~-----3h4p3--------------|
C||------------------------------------9~-----------6-4----------|
G||--4-6-6-6-4-6-6-4-6b7r6-4-6---6---x-7~---------------6-4------|
D||----------------------------------x----------------------7-6--|
                                                        . . . .

Guitar 2:
D||-----------------------------------------------|
A||-----------------------------------------------|
F||------------------------------------9~-----11--|
C||--6-8-8-8-6-8-8-6-8b9r8-6-8---8-----9~-----11--|
G||----------------------------------x-7~-----9---|
D||----------------------------------x------------|



Chorus
Guitar 1/2:
D||------------------------------------------------------------|
A||------------------------------------------------------------|
F||------------------------------------------------------------|
C||--6--6--6--6-------------------6--6--6--6-------------------|
G||--6--6--6--6--------4-6-7-6-4--6--6--6--6--------4-6-4------|
D||--4--4--4--4--7-6-7------------4--4--4--4--7-6-7-------7-6--|


D||------------------------------------------------------------|
A||------------------------------------------------------------|
F||------------------------------------------------------------|
C||--2--2--2--2----------1-2-1----4--4--4--4----------1--------|
G||--2--2--2--2--2-1-2-4-------4--4--4--4--4--2-1-2-4---4-2-1--|
D||--0--0--0--0-------------------2--2--2--2-------------------|


Guitar 1:
D||------------------------------------------------------------|
A||------------------------------------------------------------|
F||------------------------------------------------------------|
C||--6--6--6--6-------------------6--6--6--6-------------------|
G||--6--6--6--6--------4-6-7-6-4--6--6--6--6--------4-6-4------|
D||--4--4--4--4--7-6-7------------4--4--4--4--7-6-7-------7-6--|


D||------------------------------------------------------------|
A||------------------------------------------------------------|
F||------------------------------------------------------------|
C||--2--2--2--2----------1-2-1----4--4--4--4----------1--------|
G||--2--2--2--2--2-1-2-4-------4--4--4--4--4--2-1-2-4---4-2-1--|
D||--0--0--0--0-------------------2--2--2--2-------------------|


Guitar 2:
D||------------------------------------------------------------|
A||----------------------4-5-4------------------------4--------|
F||--------------4-3-4-6-------6--------------4-3-4-6---6-4-3--|
C||--6--6--6--6-------------------6--6--6--6-------------------|
G||--6--6--6--6-------------------6--6--6--6-------------------|
D||--4--4--4--4-------------------4--4--4--4-------------------|


D||------------------------------------------------------------|
A||----------------------4-5-4------------------------4--------|
F||--------------4-3-4-6-------6--------------4-3-4-6---6-4-3--|
C||--2--2--2--2-------------------4--4--4--4-------------------|
G||--2--2--2--2-------------------4--4--4--4-------------------|
D||--0--0--0--0-------------------2--2--2--2-------------------|



Bridge
Guitar 1:
D||-----16----19----16----18----16----19-------16-18--|
A||--16----16----16----16----16----16----16-16--------|
F||---------------------------------------------------|
C||---------------------------------------------------| x3
G||---------------------------------------------------|
D||---------------------------------------------------|


D||--12~----------14~---------------------------|
A||--15b17~-------17b19~------------17-14/(16)--|
F||---------------------------------------------|
C||---------------------------------------------|
G||---------------------------------------------|
D||---------------------------------------------|


D||-----16----19----16----18----16----19-------16-18--|
A||--16----16----16----16----16----16----16-16--------|
F||---------------------------------------------------|
C||---------------------------------------------------| x3
G||---------------------------------------------------|
D||---------------------------------------------------|


D||--21b23~------r21-19-21~--|
A||--------------------------|
F||--------------------------|
C||--------------------------|
G||--------------------------|
D||--------------------------|


Guitar 2:
D||---------------------------------------|----------------------------------|
A||---------------------------------------|----------------------------------|
F||---------------------------------------|--------------------------9~---\--|
C||--6-6-4-6-x-x-6-6-4-6-x-x--------------|--6-6-4-6-x-x-6-6-4-6-x-x-9~---\--|
G||--6-6-4-6-x-x-6-6-4-6-x-x--------------|--6-6-4-6-x-x-6-6-4-6-x-x-7~---\--|
D||--4-4-4-4-x-x-4-4-4-4-x-x-'3-'3-'3-'3--|--4-4-4-4-x-x-4-4-4-4-x-x---------|


D||---------------------------------------|-----------------|
A||---------------------------------------|-----------------|
F||---------------------------------------|-----------------|
C||--6-6-4-6-x-x-6-6-4-6-x-x--------------|--2~---------4~--| x2
G||--6-6-4-6-x-x-6-6-4-6-x-x--------------|--2~---------4~--|
D||--4-4-4-4-x-x-4-4-4-4-x-x-'3-'3-'3-'3--|--0~---------2~--|



Solo
Guitar 1:
D||--------------18--------------------------18------------------------------------------|
A||--/18b~20~-------20~-r18---16~----18n20~-----20r18~--16~h18p16\14-16-14~h16p14\13-14--|
F||--------------------------------------------------------------------------------------|
C||--------------------------------------------------------------------------------------|
G||--------------------------------------------------------------------------------------|
D||--------------------------------------------------------------------------------------|


D||--16-------15-------16----/15~-16-15-13----------------------------------|
A||-----13-14----13-14----13---------------16-14~---------------------------|
F||---------------------------------------------------/12~-13-12-10---------|
C||-----------------------------------------------------------------13-11~--|
G||-------------------------------------------------------------------------|
D||-------------------------------------------------------------------------|


D||---------------------------------14h16/19--18--16--19-18-16--------|
A||---------------14h16-------14h16----------------------------19-16--|
F||---------13h16-------13h16-----------------------------------------|
C||--/13h16-----------------------------------------------------------|
G||-------------------------------------------------------------------|
D||-------------------------------------------------------------------|


D||--16--------------------------19-----19-----19~-----|
A||-----19-16-------19-16-19b21~-19b21~-19b21~-19b21~--|
F||-----------18-16------------------------------------|
C||----------------------------------------------------|
G||----------------------------------------------------|
D||----------------------------------------------------|


Guitar 2:
D||-------------------------------------|
A||-------------------------------------|
F||-------------------------------------|
C||-------------------------------------| x2
G||--4-6-6-6-4-6-6-4-6b7r6-4-6---6---6--|
D||-------------------------------------|


D||--------------------------------------------------------------|
A||--------------------------------------------------------------|
F||-------------------------------------------3h4p3--------------|
C||------------------------------------2~-----------6-4----------|
G||--4-6-6-6-4-6-6-4-6b7r6-4-6---6---x-2~---------------6-4------|
D||----------------------------------x-0~-------------------7-6--|
                                                        . . . .

Guitar 3 (Dub):
D||-----------------------------------------------|
A||-----------------------------------------------|
F||-----------------------------------------------|
C||------------------------------------2~-----4~--|
G||--4-6-6-6-4-6-6-4-6b7r6-4-6---6---x-2~-----4~--|
D||----------------------------------x-0~-----2~--|


Guitar 2/3 (Dub):
D||-------------------|
A||-------------------|
F||-------------------|
C||--4~--4~--4~--4~\--|
G||--4~--4~--4~--4~\--|
D||--2~--2~--2~--2~\--|



Chorus
Guitar 1/2:
D||-----------------------------------|
A||-----------------------------------|
F||-----------------------------------|
C||--x-x-6--6--6--6-------------------|
G||--x-x-6--6--6--6--------4-6-4------|
D||--x-x-4--4--4--4--7-6-7-------7-6--|


D||------------------------------------------------------------|
A||------------------------------------------------------------|
F||------------------------------------------------------------|
C||--2--2--2--2----------1-2-1----4--4--4--4----------1--------|
G||--2--2--2--2--2-1-2-4-------4--4--4--4--4--2-1-2-4---4-2-1--|
D||--0--0--0--0-------------------2--2--2--2-------------------|


Guitar 1:
D||------------------------------------------------------------|
A||------------------------------------------------------------|
F||------------------------------------------------------------|
C||--6--6--6--6-------------------6--6--6--6-------------------|
G||--6--6--6--6--------4-6-7-6-4--6--6--6--6--------4-6-4------|
D||--4--4--4--4--7-6-7------------4--4--4--4--7-6-7-------7-6--|


D||------------------------------------------------------------|
A||------------------------------------------------------------|
F||------------------------------------------------------------|
C||--2--2--2--2----------1-2-1----4--4--4--4----------1--------|
G||--2--2--2--2--2-1-2-4-------4--4--4--4--4--2-1-2-4---4-2-1--|
D||--0--0--0--0-------------------2--2--2--2-------------------|


Guitar 2:
D||------------------------------------------------------------|
A||----------------------4-5-4------------------------4--------|
F||--------------4-3-4-6-------6--------------4-3-4-6---6-4-3--|
C||--6--6--6--6-------------------6--6--6--6-------------------|
G||--6--6--6--6-------------------6--6--6--6-------------------|
D||--4--4--4--4-------------------4--4--4--4-------------------|


D||------------------------------------------------------------|
A||----------------------4-5-4------------------------4--------|
F||--------------4-3-4-6-------6--------------4-3-4-6---6-4-3--|
C||--2--2--2--2-------------------4--4--4--4-------------------|
G||--2--2--2--2-------------------4--4--4--4-------------------|
D||--0--0--0--0-------------------2--2--2--2-------------------|



Guitar 1/2:
D||---------------------------------------|----------------------------------|
A||---------------------------------------|----------------------------------|
F||---------------------------------------|--------------------------9~---\--|
C||--6-6-4-6-x-x-6-6-4-6-x-x--------------|--6-6-4-6-x-x-6-6-4-6-x-x-9~---\--|
G||--6-6-4-6-x-x-6-6-4-6-x-x--------------|--6-6-4-6-x-x-6-6-4-6-x-x-7~---\--|
D||--4-4-4-4-x-x-4-4-4-4-x-x-'3-'3-'3-'3--|--4-4-4-4-x-x-4-4-4-4-x-x---------|


D||---------------------------------------|-----------------|
A||---------------------------------------|-----------------|
F||---------------------------------------|-----------------|
C||--6-6-4-6-x-x-6-6-4-6-x-x--------------|--2~---------4~--|
G||--6-6-4-6-x-x-6-6-4-6-x-x--------------|--2~---------4~--|
D||--4-4-4-4-x-x-4-4-4-4-x-x-'3-'3-'3-'3--|--0~---------2~--|


D||-----------|
A||-----------|
F||-----------|
C||--x-x-x-x--|
G||--x-x-x-x--|
D||--x-x-x-x--|




Tablature Legend
----------------
 h   hammer-on
 p   pull-off
 b   bend
 pb  pre-bend
 r   release bend
 ~   hold / vibrato
 .   palm mute
 /   slide up
 \   slide down
 *   pinch harmonic
 '   natural harmonic
 x   mute note
 T   tap
Tap to rate this tab
 
# A B C D E F G H I J K L M N O P Q R S T U V W X Y Z