Song name
# A B C D E F G H I J K L M N O P Q R S T U V W X Y Z

Gustavo Canabarro - El Toro Malaguena tab

Intro

e-0---1-3-1-0h1p0----------0-----0--------------------------------------|
B-------------------------0-------0-------------------------------------|
G------------------------1---------1------------------------------------|
D-----------------------2-----------2-----------------------------------|
A----------------------2-------------2----------------------------------|
E---------------------0---------------0---------------------------------|


e---------------------------0-------------------------------------------|
B-0---3---1-0h1p0---------1----------------0-1---0-3-1-0----------------|
G-----------------------2----------2---1-2---2-----------2--------------|
D---------------------3----------------------3--------------------------|
A-------------------0------------------------0--------------------------|
E-----------------------------------------------------------------------|


e----------------0------------------------------------------------------|
B-------------0--0------------------------------------------------------|
G----------1------------------------------------------------------------|
D-------2---------------------------------------------------------------|
A----2------------------------------------------------------------------|
E-0---------------------------------------------------------------------|



e-0---1-3-1-0h1p0----------0--------------------------------------------|
B-------------------------0-0-------------------------------------------|
G------------------------1---1------------------------------------------|
D-----------------------2-----2-----------------------------------------|
A----------------------2-------2----------------------------------------|
E---------------------0---------0---------------------------------------|


e------------------------1-----------------------------------------------|
B-0---3---1-0h1p0-------1-1--------------------0-1---0---3-----1---3-/-4-|
G----------------------2---2-----------2---1-2---2-----------------------|
D---------------------3-----3--------------------3-----------------------|
A--------------------3-------3-------------------3-----------------------|
E-------------------1---------1------------------1-----------------------|


e-----------------------------------------------------------------------|
B----4~-----------------------------------------------------------------|
G-----------------------------------------------------------------------|
D-----------------------------------------------------------------------|
A-----------------------------------------------------------------------|
E-----------------------------------------------------------------------|



Part 1

e----0-----0-----0-----0-----0-----0-----0-----0-----0-----0-----0-----0-|
B----0-----0-----0-----0-----0-----0-----1-----1-----1-----1-----0-----0-|
G----1-----1-----1-----1-----1-----1-----2-----2-----2-----2-----2-----2-|
D------------------------------------------------------------------------|
A-------------2-----------------2-----0-----3-----2-----0----------------|
E-0-----4-----------0-----4-----------------------------------3-----1----|


e----0-----0-----0-----0-----0-----0-----0-----0-----0-----0-----0-----0-|
B----0-----0-----0-----0-----0-----0-----0-----0-----0-----0-----0-----0-|
G----1-----1-----1-----1-----1-----1-----2-----2-----2-----2-----2-----2-|
D------------------------------------------------------------------------|
A-------------2-----------------2-----0-----3-----2-----0----------------|
E-0-----4-----------0-----4-----------------------------------3-----1----|


e----0-----0-----0-----0-----0-----0-----0-----0-----0-----0-----0-----0-|
B----0-----0-----0-----0-----0-----0-----0-----0-----0-----0-----0-----0-|
G----1-----1-----1-----1-----1-----1-----2-----2-----2-----2-----2-----2-|
D------------------------------------------------------------------------|
A-------------2-----------------2-----0-----3-----2-----0----------------|
E-0-----4-----------0-----4-----------------------------------3-----1----|


e-----0-------0-------0-------0-------0-------0-------0-------0-------0-|
B-----0-------0-------0-------0-------0-------0-------1-------1-------1-|
G-----1-------1-------1-------1-------1-------1-------2-------2-------2-|
D-----------------------------------------------------------------------|
A-----------------2-----------------------2-------0-------3-------2-----|
E-0-------4---------------0-------4-------------------------------------|


e-----0-------0-------0-------------0-----------------------------------|
B-----1-------1-------0------------0-0----------------------------------|
G-----2-------2-------2-----------1---1---------------------------------|
D--------------------------------2-----2--------------------------------|
A-0-----------------------------2-------2-------------------------------|
E---------3-------1----------0--------------0---------------------------|



Part 2

e-0-0-0--0-0-0--0-0-0--0-0-0--0-0-0--0-0-0------------------------------|
B-----------------------------------------------------------------------|
G-----------------------------------------------------------------------|
D-----------------------------------------------------------------------|
A-----------------------------------------------------------------------|
E-----------------------------------------------------------------------|


e-0-0-0--1-3-1-0---------0-----------0----------------------------------|
B--------------0---3-1-0-1---------0-1---0-3-1-0------------------------|
G--------------1---------2---2-1h2---2-----------2----------------------|
D--------------2---------3-----------3----------------------------------|
A--------------2---------0-----------0----------------------------------|
E--------------0--------------------------------------------------------|


e-0---0-3-1-0-0-----------0-----------0---------------------------------|
B-0-----------0---0-3-1-0-1---------0-1---0-3-1-0-----------------------|
G-1-----------1-----------2---2-1-2---2-----------2---------------------|
D-2-----------2-----------3-----------3---------------------------------|
A-2-----------2-----------0-----------0---------------------------------|
E-0-----------0---------------------------------------------------------|


e-0---0-3-1-0-0-----------0-----------0---------------------------------|
B-0-----------0---0-3-1-0-1---------0-1---0-3-1-0-----------------------|
G-1-----------1-----------2---2-1-2---2-----------2---------------------|
D-2-----------2-----------3-----------3---------------------------------|
A-2-----------2-----------0-----------0---------------------------------|
E-0-----------0---------------------------------------------------------|


e-0---0-3-1-0-0-----------0-----------0---------------------------------|
B-0-----------0---0-3-1-0-1---------0-1---0-3-1-3-3/4~~~----------------|
G-1-----------1-----------2---2-1-2---2---------------------------------|
D-2-----------2-----------3-----------3---------------------------------|
A-2-----------2-----------0-----------0---------------------------------|
E-0-----------0---------------------------------------------------------|



Part 3

e---0---0---0---0---0---0---0---0---0---0---0---0-----------------------|
B---0---0---0---0---0---0---1---1---1---1---0---0-----------------------|
G---1---1---1---1---1---1---2---2---2---2---2---2-----------------------|
D-----------------------------------------------------------------------|
A---------2-----------2---0---3---2---0---------------------------------|
E-0---4-------0---4-----------------------3---1-------------------------|


e---0---0---0---0---0---0---0---0---0---0---0---0-----------------------|
B---0---0---0---0---0---0---1---1---1---1---0---0-----------------------|
G---1---1---1---1---1---1---2---2---2---2---2---2-----------------------|
D-----------------------------------------------------------------------|
A---------2-----------2---0---3---2---0---------------------------------|
E-0---4-------0---4-----------------------3---1-------------------------|


e---0---0---0---0---0---0---0---0---0---0---0---0-----------------------|
B---0---0---0---0---0---0---1---1---1---1---0---0-----------------------|
G---1---1---1---1---1---1---2---2---2---2---2---2-----------------------|
D-----------------------------------------------------------------------|
A---------2-----------2---0---3---2---0---------------------------------|
E-0---4-------0---4-----------------------3---1-------------------------|


e---0---0---0---0---0---0---0---0---0---0---0---0-0---------------------|
B---0---0---0---0---0---0---1---1---1---1---0---0-0---------------------|
G---1---1---1---1---1---1---2---2---2---2---2---1-1---------------------|
D-----------------------------------------------2-2---------------------|
A---------2-----------2---0---3---2---0---------2-2---------------------|
E-0---4-------0---4-----------------------3---1-0-0---------------------|



Part 4

e-0-0-0---0-0-0---0-0-0---0-0-0---0---0---0-0-0---0-0-0---0---0---------|
B-0-0-0---0-0-0---0-0-0---0-0-0---0---0---0-0-0---0-0-0---0---0---x-----|
G-1-1-1---1-1-1---1-1-1---1-1-1---1---2---2-2-2---2-2-2---2---4---x-----|
D-2-2-2---2-2-2---2-2-2---2-2-2---2---3---3-3-3---3-3-3---3---5---x-----|
A-2-2-2---2-2-2---2-2-2---2-2-2---2---3---3-3-3---3-3-3---3---5---x-----|
E-0-0-0---0-0-0---0-0-0---0-0-0---0---0---0-0-0---0-0-0---0---0---------|


e-0-0-0---0-0-0---0-0-0---0-0-0---0---0---0-0-0---0-0-0---0---0---------|
B-0-0-0---0-0-0---0-0-0---0-0-0---0---0---0-0-0---0-0-0---0---0---x-----|
G-1-1-1---1-1-1---1-1-1---1-1-1---1---2---2-2-2---2-2-2---2---4---x-----|
D-2-2-2---2-2-2---2-2-2---2-2-2---2---3---3-3-3---3-3-3---3---5---x-----|
A-2-2-2---2-2-2---2-2-2---2-2-2---2---3---3-3-3---3-3-3---3---5---x-----|
E-0-0-0---0-0-0---0-0-0---0-0-0---0---0---0-0-0---0-0-0---0---0---------|


e-----4---4-4-4---4-4-4---4-4-4---4---5---5-5-5---5-5-5--------7--------|
B-----5---5-5-5---5-5-5---5-5-5---5---6---6-6-6---6-5-6---x----8---x----|
G-----4---4-4-4---4-4-4---4-4-4---4---5---5-5-5---5-5-5---x----7---x----|
D-----6---6-6-6---6-6-6---6-6-6---6---7---7-7-7---7-7-7---x----9---x----|
A-----7---7-7-7---7-7-7---7-7-7---7---8---8-8-8---8-8-8---x---10---x----|
E-----------------------------------------------------------------------|


e-----4---4-4-4---4-4-4---4-4-4---4---5---5-5-5---5-5-5--------7--------|
B-----5---5-5-5---5-5-5---5-5-5---5---6---6-6-6---6-5-6---x----8---x----|
G-----4---4-4-4---4-4-4---4-4-4---4---5---5-5-5---5-5-5---x----7---x----|
D-----6---6-6-6---6-6-6---6-6-6---6---7---7-7-7---7-7-7---x----9---x----|
A-----7---7-7-7---7-7-7---7-7-7---7---8---8-8-8---8-8-8---x---10---x----|
E-----------------------------------------------------------------------|


e-4---------------------------------------------------------------------|
B-5---------------------------------------------------------------------|
G-4---------------------------------------------------------------------|
D-6---------------------------------------------------------------------|
A-7---~~~------------\\\------------------------------------------------|
E-----------------------------------------------------------------------|


Part 5

e-----0-0-0-0-0-0-0-0-0-0-0-0-0-0-0-0-0-0-0-0-0-0-0-0-0-0-0-0-0-0-0-0---|
B---------------0-----------------0-----------1-----0-------------------|
G---------1-----------------1-----------------------------2-----0-------|
D-0h2-----------------2-----------------3-------------------------------|
A-----------------------------------------------------------------------|
E-----------------------------------------------------------------------|


e-0-0-0-----------------------------------------------------------------|
B-----------------------------------------------------------------------|
G-----------------------------------------------------------------------|
D-3---------------------------------------------------------------------|
A-----------------------------------------------------------------------|
E-----------------------------------------------------------------------|


e-----0-0-0-0-0-0-0-0-0-0-0-0-0-0-0-0-0-0-0-0-0-0-0-0-0-0-0-0-0-0-0-0---|
B---------------0-----------------0-----------1-----0-------------------|
G---------1-----------------1-----------------------------2-----0-------|
D-0h2-----------------2-----------------3-------------------------------|
A-----------------------------------------------------------------------|
E-----------------------------------------------------------------------|


e-0-0-0-----------------------------------------------------------------|
B-----------------------------------------------------------------------|
G-----------------------------------------------------------------------|
D-3---------------------------------------------------------------------|
A-----------------------------------------------------------------------|
E-----------------------------------------------------------------------|


e-4-4-4-4-4-4-4-4-4-4-4-4-4-4-4-4-4-4-----------------------------------|
B-----------------------------------------------------------------------|
G-------------4-----------------4---------------------------------------|
D-------6-----------------6---------------------------------------------|
A-7-----------------7---------------------------------------------------|
E-----------------------------------------------------------------------|


e-5-5-5-5-5-5-5-5-5-5-5-5-5-5-5-5-5-5-----------------------------------|
B-----------------------------------------------------------------------|
G-------------5-----------------5---------------------------------------|
D-------7-----------------7---------------------------------------------|
A-8-----------------8---------------------------------------------------|
E-----------------------------------------------------------------------|


e-4-4-4-4-4-4-4-4-4-4-4-4-4-4-4-4-4-4-----------------------------------|
B-----------------------------------------------------------------------|
G-------------4-----------------4---------------------------------------|
D-------6-----------------6---------------------------------------------|
A-7-----------------7---------------------------------------------------|
E-----------------------------------------------------------------------|


e-5-5-5-5-5-5-5-5-5-5-5-5-5-5-5-5-5-5-----------------------------------|
B-----------------------------------------------------------------------|
G-------------5-----------------5---------------------------------------|
D-------7-----------------7---------------------------------------------|
A-8-----------------8---------------------------------------------------|
E-----------------------------------------------------------------------|


e-----0-0-0-0-0-0-0-0-0-0-0-0-0-0-0-0-0-0-0-0-0-0-0-0-0-0-0-0-0-0-0-0---|
B---------------0-----------------0-----------1-----0-------------------|
G---------1-----------------1-----------------------------2-----0-------|
D-0h2-----------------2-----------------3-------------------------------|
A-----------------------------------------------------------------------|
E-----------------------------------------------------------------------|


e-0-0-0-----------------------------------------------------------------|
B-----------------------------------------------------------------------|
G-----------------------------------------------------------------------|
D-3---------------------------------------------------------------------|
A-----------------------------------------------------------------------|
E-----------------------------------------------------------------------|


e-4-4-4-4-4-4-4-4-4-4-4-4-4-4-4-4-4-4-----------------------------------|
B-----------------------------------------------------------------------|
G-------------4-----------------4---------------------------------------|
D-------6-----------------6---------------------------------------------|
A-7-----------------7---------------------------------------------------|
E-----------------------------------------------------------------------|


e-5-5-5-5-5-5-5-5-5-5-5-5-5-5-5-5-5-5-4---------------------------------|
B-------------------------------------5---------------------------------|
G-------5-----------------------------4---------------------------------|
D-------------9-----7-----5-----------6---------------------------------|
A-8-----------------------------8-----7---------------------------------|
E-----------------------------------------------------------------------|


Part 6

e-----------------------------------------------------------------------|
B-----------------------------------------------------------------------|
G-----------------------------------------------------------------------|
D-0h2---2-----------------------------2-3-3/5~--------------------------|
A-----------5-3-2---------------2-3-5-----------------------------------|
E-----------------5-3-2-0-2-3-5-----------------------------------------|


e--------------------------------0-0-0----------------------------------|
B--------------------------------0-0-0----------------------------------|
G--------------------------------1-1-1----------------------------------|
D-0h3h5p3-2---2~~----------------2-2-2----------------------------------|
A--------------------------------2-2-2----------------------------------|
E--------------------------------0-0-0----------------------------------|


e------------4-5-5/7---7---\\\------------0-----------------------------|
B-5~-------------------------------------0-0----------------------------|
G---------------------------------------1---1---------------------------|
D--------------------------------------2-----2--------------------------|
A-------------------------------------2-------2-------------------------|
E---------------------------------0------------0------------------------|


e------------5-7-7/8---8---\\\-------0----------------------------------|
B-5~--------------------------------1-1---------------------------------|
G----------------------------------2---2--------------------------------|
D---------------------------------3-----3-------------------------------|
A--------------------------------3------3-------------------------------|
E-----------------------------------------------------------------------|


e-/10-----8h10p8-7---7~---\\\-------0-0-0-------------------------------|
B-----------------------------------0-0-0-------------------------------|
G-----------------------------------1-1-1-------------------------------|
D-----------------------------------2-2-2-------------------------------|
A-----------------------------------2-2-2-------------------------------|
E-----------------------------------0-0-0-------------------------------|


Part 7

e-0-0-0---0-------0-0-0---0-------0-0-0---0-------0-0-0-----0-----0-----|
B-0-0-0---0---x---0-0-0---0---x---0-0-0---0---x---0-0-0-----0-----0-----|
G-1-1-1---1---x---1-1-1---1---x---2-2-2---2---x---4-4-4-----4-----2-----|
D-2-2-2---2---x---2-2-2---2---x---3-3-3---3---x---5-5-5-----5-----3-----|
A-2-2-2---2---x---2-2-2---2---x---3-3-3---3---x---5-5-5-----5-----3-----|
E-0-0-0---0-------0-0-0---0-------0-0-0---0-------0-0-0-----0-----0-----|


e-0---0-------0-0-0---0-------0-0-0---0-------0-0-0-----0-----0---------|
B-0---0---x---0-0-0---0---x---0-0-0---0---x---0-0-0-----0-----0---------|
G-1---1---x---1-1-1---1---x---2-2-2---2---x---4-4-4-----4-----2---------|
D-2---2---x---2-2-2---2---x---3-3-3---3---x---5-5-5-----5-----3---------|
A-2---2---x---2-2-2---2---x---3-3-3---3---x---5-5-5-----5-----3---------|
E-0---0-------0-0-0---0-------0-0-0---0-------0-0-0-----0-----0---------|


e-4---4-------4-4-4---4-------5-5-5---5-------7--7--7------7------5-----|
B-5---5---x---5-5-5---5---x---6-6-6---6---x---8--8--8------8------6-----|
G-4---4---x---4-4-4---4---x---5-5-5---5---x---7--7--7------7------5-----|
D-6---6---x---6-6-6---6---x---7-7-7---7---x---9--9--9------9------7-----|
A-7---7---x---7-7-7---7---x---8-8-8---8---x---10-10-10-----10-----8-----|
E-----------------------------------------------------------------------|


e-4---4-------4-4-4---4-------5-5-5---5-------7--7--7------7------5---0-|
B-5---5---x---5-5-5---5---x---6-6-6---6---x---8--8--8------8------6---0-|
G-4---4---x---4-4-4---4---x---5-5-5---5---x---7--7--7------7------5---1-|
D-6---6---x---6-6-6---6---x---7-7-7---7---x---9--9--9------9------7---2-|
A-7---7---x---7-7-7---7---x---8-8-8---8---x---10-10-10-----10-----8---2-|
E---------------------------------------------------------------------0-|



Part 8

e-0-0-0--0-0-0--0-0-0--0-0-0--------------------------------------------|
B-----------------------------------------------------------------------|
G-----------------------------------------------------------------------|
D-----------------------------------------------------------------------|
A-----------------------------------------------------------------------|
E-----------------------------------------------------------------------|


e-0-0-0--0-0-0-------------------------------------------0-1-3-3-3------|
B--------------3-1-0-------------------------------0-1-3----------------|
G--------------------2-0-----------------------0-2----------------------|
D------------------------3-2-0-----------0-2-3--------------------------|
A------------------------------3-2-0-2-3--------------------------------|
E-----------------------------------------------------------------------|


e-1h3p1-0-0-------------------------------------------------------------|
B-----------------------------------------------------------------------|
G-----------------------------------------------------------------------|
D-----------------------------------------------------------------------|
A-----------------------------------------------------------------------|
E-----------------------------------------------------------------------|

Then Part 7 till the end with some changes
Tap to rate this tab
# A B C D E F G H I J K L M N O P Q R S T U V W X Y Z