Song name
# A B C D E F G H I J K L M N O P Q R S T U V W X Y Z

Gustavo Cerati - Lago En El Cielo tab

Help us improve GuitareTab! Take a short survey!
This is dedicated to all Gustavo Cerati fans out there.

Intro. Repeat this 3 times.

e|---------------------------------------------------|
B|---10--10--8--8--7--7--7--7------------------------|
G|---------------------------------------------------|
D|--10--10--9--9--7--7--7--7-------------------------|
A|---------------------------------------------------|
E|---------------------------------------------------|
______

2nd Part.

e|--0--0--0--0--0--0--0-------------------------------------|
B|--0--0--1--0--3--3--3-------------------------------------|
G|--0--0--0--0--0--0--0-------------------------------------|
D|--2--2--2--2--2--2--2-------------------------------------|
A|--2--2--2--2--2--2--2-------------------------------------|
E|--0--0--0--0--0--0--0-------------------------------------|

Related for Lago En El Cielo tab