Song name
# A B C D E F G H I J K L M N O P Q R S T U V W X Y Z

Gustavo Santaolalla - Tema Amores Perros tab

Gustavo Santaolalla - Tema Amores Perros

e|------3--7---5--2----0--------3--7---5--2----0-|
B|-----0--0--------------------0--0--------------|
G|---------------0-----------------------0-------|
D|-----------------------------------------------|
A|--------------------3-----------------------3--|
E|-0------------------------0--------------------|

e|---------0-------------------|
B|------1------3--0----------0-|
G|---------------------2-------|
D|-----2--2------2-------------|
A|-0------------------------2--|
E|--------------------1--------|

e|------3--7---5--2----0-----0-|
B|-----0--0--------------------|
G|---------------0-------------|
D|-----------------------------|
A|--------------------3--------|
E|-0------------------------0--|




e|-----3-3/7---8/7/5---7/5/3-------|
B|-----------------------------0-0-|
G|---------------------------------|
D|---------------------------------|
A|---------------------------------|
E|-0-------------------------------|

e|-3-3/7---8/7/5---6/7/5/3------5------0-0------|
B|--------------------------------7-------------|
G|----------------------------------------------|
D|----------------------------------------------|
A|----------------------------------------------|
E|-----------------------------0--------------0-|

e|------3--7---5--2----0--------3--7---5--2----0-|
B|-----0--0--------------------0--0--------------|
G|---------------0-----------------------0-------|
D|-----------------------------------------------|
A|--------------------3-----------------------3--|
E|-0------------------------0--------------------|

e|---------0-------------------|
B|------1------3--0----------0-|
G|---------------------2-------|
D|-----2--2------2-------------|
A|-0------------------------2--|
E|--------------------1--------|

e|------3--7---5--2----0---------3--7---5--2----0------0-|
B|-----0--0---------------------0--0---------------------|
G|---------------0------------------------0--------------|
D|-------------------------------------------------------|
A|--------------------3------------------------3---------|
E|-0------------------------0-------------------------0--|

I am very sure that this tab is correct.
Have fun.
Tap to rate this tab
 
# A B C D E F G H I J K L M N O P Q R S T U V W X Y Z