Song name
# A B C D E F G H I J K L M N O P Q R S T U V W X Y Z

Gustavo Santaolalla - Snow tab

  G                                                           C
e|------------------------------------------------------------0-------0---|
B|0-------0-------0-------0-------0-------0-------0-------0-----1---1---1-|
G|--0---0---0---0---0---0----0------0---0---0---0---0---0--------0-0-----0|
D|---0-0-----0-0-----0-0-------------0-0-----0-0-----0-0------------------|
A|------------------------------------------------------------3-3-3-3-3-3-|
E|3-3-3-3-3-3-3-3-3-3-3-3-3-3-3-3-3-3-3-3-3-3-3-3-3-3-3-3-3-3-------------|

      G               C               G               D
e|--------------------0-------0-----------------------2-------2-------|
B|--1-0-------0---------1---1---1---1-0-------0---------3---3---3---3-|
G|-0----0---0---0---0----0-0-----0-0----0---0---0---0----2-2-----2-2--|
D|-------0-0-----0-0---------------------0-0-----0-0--0-0-0-0-0-0-0-0-|
A|3-3-----------------3-3-3-3-3-3-3-3---------------------------------|
E|----3-3-3-3-3-3-3-3-----------------3-3-3-3-3-3-3-3-----------------|
Tap to rate this tab
# A B C D E F G H I J K L M N O P Q R S T U V W X Y Z