Song name
# A B C D E F G H I J K L M N O P Q R S T U V W X Y Z

Gustavo Santaolalla - De Usuahia A La Quiaca tab

So this is just tabbed from a video on youtube and it sounds pretty good...this just 
a general idea and so just work with it on your own...
Oh yah tune the 1st string 1 step up and the third string 1/2 a step down. enjoy.


E|-0-----0-0-----0-0-----0-0---------0-0-----|
B|---0-------0-------0-----------0-------0---|
G|-----0-------0-------0-----------0-------1-|
D|-----------------2-------0h2p0-------------|
A|-2-------4---------------------------4-----|
E|-------------------------------------------|

mess around with that a little bit then it turns into this...

E|-5-----5-----5-0-----------|
B|---2-----2-------0---3-0---|
G|-----0-----0-------0-----0-|
D|---------------------------|
A|-0-------------2-----------|
E|---------------------------|
Tap to rate this tab
# A B C D E F G H I J K L M N O P Q R S T U V W X Y Z