Song name
# A B C D E F G H I J K L M N O P Q R S T U V W X Y Z

Gustavo Santaolalla - De Usuahia A La Quiaca tab

Gustavo Santaolalla - De Usuahia a la Quiaca



Couldn't find any good tabs to this great piece of music.
So I tabbed it from videos on youtube.

Before you start tune the 1st string (E) 1 step up to F#
and the 3rd string (G) 1/2  a step down to F#

(since the original is played on a Ronroco Guitar which has a "Re Sol Si Mi Si" tuning)

Capo 8th fret.

if you have some correction feel free to write me: me.joe86@gmail.com

(and sorry for my english, i'm from Switzerland)



Intro

F#|-0-----0-0-----0-0-----0-0-----0-0-----0-0-----0-0-----0-0-----0-|
B |---0-------0-------0-------0-------0-------0-------0-------0-----|
F#|-----0-------0-------0-------0-------0-------0-------0-------0---|
D |-----------------------------------------------------------------|
A |-----------------------------------------------------------------|
E |-----------------------------------------------------------------|

(try to play with the volume, check out the original)





F#|-0-----0-0-----0-0-----0-0---------0-0-----0-0-----0-0-----0-0-----0-|
B |---0-------0-------0-----------0-------0-------0-------0-------0-----|
F#|-----0-------0-------0-----------0-------1-------1-------1-------1---|   2x
D |----------------2-------0h2p0--------4-------4-------4-------4-------|
A |-2-------4-----------------------------------------------------------|
E |---------------------------------------------------------------------|


F#|-0-----0-0-----0-0---------0-0-----0-0-----0-0-----0-0-----0-0-----0-|
B |---0-------0-----------0-------0-------0-------0-------0-------0-----|
F#|-----1-------1-----------1-------1-------0-------0-------0-------0---|
D |-4-------2-------0h2p0-------2---------------------------------------|
A |-------------------------------------4-------4-------4-------4-------|
E |---------------------------------------------------------------------|


F#|-0-----0-0-----0-0---------0-0-----0-0-----0-0-----0-0-----0-0-----0-|
B |---0-------0-----------0-------0-------0-------0-------0-------0-----|
F#|-----1-------1-----------1-------1-------0-------0-------0-------0---|
D |-4-------2-------0h2p0-------2---------------------------------------|
A |-------------------------------------4-------0-------5-------4-------|
E |---------------------------------------------------------------------|


F#|-0-----0-0-----0-0-----0-0-----0-|
B |---0-------0-------0-------0-----|
F#|-----0-------0-------0-------0---|
D |---------------------------------|
A |-2-------------------------------|
E |---------------------------------|

repeat part 1 without intro.




for the following part I think there are two versions.


vers. 1					vers. 2

F#|-5-----5-----3-0--------------	F#|-5-----5-----5/7--0--------------|
B |---2-----2-------0---3-0---0--	B |---2-----2----------0---3-0---0--|
F#|-----0-----0-------0-----0----	F#|-----0-----0----------0-----0----|
D |------------------------------	D |---------------------------------|
A |-0-------------2--------------	A |-0----------------2--------------|
E |------------------------------	E |---------------------------------|

repeat 2 times (you can mix it up i guess since they are almost the same)



not sure if the following part is correct, doesn't sound that bad to me though.


F#|-5p0-----1p0-----0-------------|
B |-----0-------0-2---0---3-0---0-|
F#|---------------------0-----0---|
D |---------0---------------------|
A |-0-------------1-2-------------|
E |-------------------------------|


vers. 1					vers. 2

F#|-5-----5-----3-0--------------	F#|-5-----5-----5/7--0--------------|
B |---2-----2-------0---3-0---0--	B |---2-----2----------0---3-0---0--|
F#|-----0-----0-------0-----0----	F#|-----0-----0----------0-----0----|
D |------------------------------	D |---------------------------------|
A |-0-------------2--------------	A |-0----------------2--------------|
E |------------------------------	E |---------------------------------|

repeat 2 times


F#|-5p0-----1p0-----0-----0-0-----0-0-----0-0-----0-|
B |-----0-------0-2---0-------0-------0-------0-----|
F#|---------------------0-------0-------0-------0---|
D |---------0---------------------------------------|
A |-0-------------1-2-------------------------------|
E |-------------------------------------------------|





F#|-0-----0-0-----0-0-----0-0---------0-0-----0-0-----0-0-----0-0-----0-|
B |---0-------0-------0-----------0-------0-------0-------0-------0-----|
F#|-----0-------0-------0-----------0-------1-------1-------1-------1---|   2x
D |----------------2-------0h2p0--------4-------4-------4-------4-------|
A |-2-------4-----------------------------------------------------------|
E |---------------------------------------------------------------------|


F#|-0-----0-0-----0-0---------0-0-----0-0-----0-0-----0-0-----0-0-----0-|
B |---0-------0-----------0-------0-------0-------0-------0-------0-----|
F#|-----1-------1-----------1-------1-------0-------0-------0-------0---|
D |-4-------2-------0h2p0-------2---------------------------------------|
A |-------------------------------------4-------4-------4-------4-------|
E |---------------------------------------------------------------------|


F#|-0-----0-0-----0-0---------0-0-----0-0-----0-0-----0-0-----0-0-------|
B |---0-------0-----------0-------0-------0-------0-------0-----0-------|
F#|-----1-------1-----------1-------1-------0-------0-------0---0-------|
D |-4-------2-------0h2p0-------2-------------------------------0-------|
A |-------------------------------------4-------0-------5-------4-------|
E |---------------------------------------------(slow down here)--------|



the end is my own interpretation because
i couldn't figure out the original.

have fun and let me know if my tab was helpful ;)

me.joe86@gmail.com
Tap to rate this tab
 
# A B C D E F G H I J K L M N O P Q R S T U V W X Y Z