Song name
# A B C D E F G H I J K L M N O P Q R S T U V W X Y Z

Gustavo Santaolalla - Riding Horses tab

-------------------------------------------------------------------------------
                             Riding Horses - Gustavo Santaolalla
-------------------------------------------------------------------------------
Tabbed by:Chris warner
E-mail:cwarner3000@gmail.com



Tuning:Drop D

DADGBe

His guitar is also tuned down a half-step

Intro
e|------------------------------------------------------------------------------|
B|------------------------------------------------------------------------------|
G|-----0-------0-------0-------0------------------------------------------------|
D|---7---7---7---7---7---7---7---7---repeat x3----------------------------------|
A|-5-------5-------5-------5----------------------------------------------------|
D|------------------------------------------------------------------------------|

e|------------------0-----------------------------------------------------------|
B|-7----------------------------------------------------------------------------|
G|-----0-------0--------0-------0-----------------------------------------------|
D|---7---7---7---7----7---7---7---7---------------------------------------------|
A|-5-------5--------------------------------------------------------------------|
D|------------------5--------5--------------------------------------------------|

e|-----------------------------------------------------------------------------|
B|-7----------------0----------------------------------------------------------|
G|-----0-------0--------0--------0---------------------------------------------|
D|---7---7---7---0----7---7----7---7-------------------------------------------|
A|-5-------5-------------------------------------------------------------------|
D|------------------5--------5-------------------------------------------------|

e|-----------------------------------------------------------------------------|
B|-3---------------------------------0-----------------------------------------|
G|---2---2---2---2------0-------0--------0-------0------0------0---------------|
D|-----5-------5----7-7---7---7---7----7---7---7--7---7--7---7--7--------------|
A|-2-------2-------------------------------------------------------------------|
D|------------------4--------4-------5--------5------5------5------------------|

e|------------------0-----------------------------------------------------------|
B|-7----------------------------------------------------------------------------|
G|-----0-------0--------0-------0-----------------------------------------------|
D|---7---7---7---7----7---7---7---7---------------------------------------------|
A|-5-------5--------------------------------------------------------------------|
D|------------------5--------5--------------------------------------------------|

e|-----------------------------------------------------------------------------|
B|-7----------------0----------------------------------------------------------|
G|-----0-------0--------0--------0---------------------------------------------|
D|---7---7---7---0----7---7----7---7-------------------------------------------|
A|-5-------5-------------------------------------------------------------------|
D|------------------5--------5-------------------------------------------------|

e|------------------------------------------------------------------------------|
B|-3---------------------------------0------------------------------------------|
G|---2---2---2---2------0-------0--------0-------0------0-----------------------|
D|-----5-------5----7-7---7---7---7----7---7---7--7---7--7---10--8--------------|
A|-2-------2--------------------------------------------------8-----------------|
D|------------------4--------4-------5--------5------5--------8-----------------|

e|------------------0-----------------------------------------------------------|
B|-7----------------------------------------------------------------------------|
G|-----0-------0--------0-------0-----------------------------------------------|
D|---7---7---7---7----7---7---7---7---then fades out----------------------------|
A|-5-------5--------------------------------------------------------------------|
D|------------------5--------5--------------------------------------------------|


************************************

| /   slide up
| \   slide down
| h   hammer-on
| p   pull-off
| ~   vibrato
| +   harmonic
| x   Mute note
| b   Bend
| pb  Pre-bend
| br  Bend release
| pbr Pre-bend release
| brb Bend release bend

************************************
Tap to rate this tab
# A B C D E F G H I J K L M N O P Q R S T U V W X Y Z