Song name
# A B C D E F G H I J K L M N O P Q R S T U V W X Y Z

Gustavo Santaolalla - Opening tab

-------------------------------------------------------------------------------
                             Opening - Gustavo Santaolalla
-------------------------------------------------------------------------------
Tabbed by: Tim S

Tuning: Standard

Copied by sight from a youtube video, so it may not be 100%, but it sounds right to me. 
Such a wonderful song, I couldn't believe there weren't any tabs for it!

The key to playing this song is to leave gaps and put on vibrato when you think appropriate. 
It's a song to have fun with, so enjoy!


e|-5\4------5\4--------------------------5\4-------5\4-0---------------------|
B|--------------------5-0-------------------------------------0--------------|
G|-------------------------4/6-----4------------------------------4/6------4-|
D|---------------------------------------------------------------------------|
A|-------------------------0--------------------------------------0----------|
E|-------------------------------0----------------------------------------0--|

e|-----------x-------0--------------------0----------------<12>--------------|
B|-----------0-------0--------------------0------------<12>-----<12>---------|
G|----6------0-------1-------6------4-----1----------------------------------|
D|-----------0-------2--------------------2----------------------------------|
A|-----------2-------2--------------------2---------------------------<7>----|
E|---5-------3-------0------5------3------0----------------------------------|



************************************

| /   slide up
| \   slide down
| h   hammer-on
| p   pull-off
| ~   vibrato
| +   harmonic
| x   Mute note
| b   Bend
| pb  Pre-bend
| br  Bend release
| pbr Pre-bend release
| brb Bend release bend

************************************
Tap to rate this tab
 
# A B C D E F G H I J K L M N O P Q R S T U V W X Y Z