Song name
# A B C D E F G H I J K L M N O P Q R S T U V W X Y Z

Gustavo Santaolalla - Vanishing Grace Innocence tab

-----------------------------------------------------------
                             Vanishing Grace (Innocence) - Gustavo Santaolalla
-----------------------------------------------------------
Tabbed by: earncreek
E-mail: earncreek00@gmail.com

Tuning: Standard EADGBe

e|--------------------------------------------------------------------------|
B|----------2-----------------------------2---0-----------------------------|
G|-2-----0--------2-----0--------2-----0---------2--------------------------|
D|----0--------------0-----4--------0---------------------------------------|
A|--------------------------------------------------------------------------|
E|-3--------------3--------------3------------------------------------------|

e|--------------------------------------------------------------------------|
B|----------2-----------------------------2---0--3--------------------------|
G|-2-----0--------2-----0--------2-----0------------------------------------|
D|----0--------------0-----4--------0---------------------------------------|
A|--------------------------------------------------------------------------|
E|-3--------------3--------------3------------------------------------------|

e|-0-----1---0--------------------------------------------------------------|
B|----3------------1--0--3------2-------------------------------------------|
G|-----------0--------------------------------------------------------------|
D|---------------------------0----------------------------------------------|
A|-3---------------3--------------------------------------------------------|
E|--------------------------------------------------------------------------|

e|--------------------------------------------------------------------------|
B|----------2-----------------------------2---0--3--------------------------|
G|-2-----0--------2-----0--------2-----0------------------------------------|
D|----0--------------0-----4--------0---------------------------------------|
A|--------------------------------------------------------------------------|
E|-3--------------3--------------3------------------------------------------|

e|--------------------------------------------------------------------------|
B|--------------------------------------------------------------------------|
G|--------------------------------------------------------------------------|
D|--------------------------------------------------------------------------|
A|--------------------------------------------------------------------------|
E|--------------------------------------------------------------------------|



************************************

| /   slide up
| \   slide down
| h   hammer-on
| p   pull-off
| ~   vibrato
| +   harmonic
| x   Mute note
| b   Bend
| pb  Pre-bend
| br  Bend release
| pbr Pre-bend release
| brb Bend release bend

************************************
Tap to rate this tab
 
# A B C D E F G H I J K L M N O P Q R S T U V W X Y Z