Song name
# A B C D E F G H I J K L M N O P Q R S T U V W X Y Z

Gustavo Santaolalla - The Choice tab

------------------------------------------
                             The Choice - Gustavo Santaolalla
------------------------------------------
Tabbed by: earncreek

Tuning: Standard

e|---------------------------------------|
B|---------------------------------------|
G|---------------------------------------|
D|---5---2--4-----5----2--4---0---2------|
A|-7----3--5----7-----3--5---2--3--------|
E|---------------------------------------| 2x

e|--------------------------------------------------------------------------|
B|--------------------------------------------------------------------------|
G|--------------------------------------------------------------------------|
D|-------6-7-9---10-------6-----6-7-7/9---7-------6-------------------------|
A|--7---7-------12--7h9--7-----7---------7--7h9--7--------------------------|
E|-0---0-------0--------0-----0---------0-------0---------------------------|

e|--------------------------------------------------------------------------|
B|-----------------2--2-----------------------------------------------------|
G|-----4---4-----2--------6----6---4----------------------------------------|
D|-2/5-------5-3---------7--7----7----6-------------------------------------|
A|-------0--------------0---------------------------------------------------|
E|--------------------------------------------------------------------------|

e|---------------------------------------------------------------------------|
B|---------------------------------------------------------------------------|
G|---------------------------------0-----------------------------------------|
D|---5---2--4-----5---2--4---0----2------------------------------------------|
A|-7----3--5----7----3--5---2----3-------------------------------------------|
E|---------------------------------------------------------------------------|



************************************

| /   slide up
| \   slide down
| h   hammer-on
| p   pull-off
| ~   vibrato
| +   harmonic
| x   Mute note
| b   Bend
| pb  Pre-bend
| br  Bend release
| pbr Pre-bend release
| brb Bend release bend

************************************
Tap to rate this tab
# A B C D E F G H I J K L M N O P Q R S T U V W X Y Z