Song name
# A B C D E F G H I J K L M N O P Q R S T U V W X Y Z

Gustavo Santaolalla - The Path tab

E------------------------------------------------------------------------|
B------------------------------------------------------------------------|
G---11---------9~-9~-11~--------6-9-7po6-6~---------9-7-9-11~------------|
D------9-11-12----------------7-------------------9----------------------|
A---------------------------0----------------7-10------------------------|
E------------------------------------------------------------------------|


E------------------------------------------------------------------------|
B------------------------------------------------------------------------|
G----11------------------------------------------------------------------|
D-------12-9----11-12~---------------------------------------------------|
A------------9-----------------------------------------------------------|
E------------------------------------------------------------------------|
Tap to rate this tab
 
# A B C D E F G H I J K L M N O P Q R S T U V W X Y Z