Song name
# A B C D E F G H I J K L M N O P Q R S T U V W X Y Z

Gustavo Santaolalla - The Last Of Us tab

-------------------------------------------------------------------------------
                             The Last of us (you and me) - Gustavo Santaolalla
-------------------------------------------------------------------------------
Tabbed by:Living Bodies

Tuning:EADGBe



 Gtr1: Fingerpicking acoustic

e|---------------------------------------------------------------------------|
B|--------------------------------12-------------------8---------------------|
G|-12-9-14-11--12-----12-9-14-11--16--12-9/12-14-11/14-12--12-11-9--9-7-7/9--|
D|----------------14---------------------------------------------------------|
A|-10---12----------------------------10------12-------10--10-9--7-----------|
E|-------------0------------------0------------------------------------------|
Gtr1: Fingerpicking acoustic
e|---------------------------------------------------------------------------|
B|-----------------------------------12---------------8----------------------|
G|-12-9/11-14-11--12-----12-9-14-11--16-12-9/12-14-11-12-12p9-12-11-9-9-7-7/9|
D|-------------------14------------------------------------------------------|
A|-10------12---------------------------10------12----10------10-9--7--------|
E|----------------0------------------0---------------------------------------|
Gtr1: Fingerpicking acoustic
e|---------------------------------------------------------------------------|
B|---------------------------------------------------------------------------|
G|-12----12----12----------7-9-12----12----12-------9--14----14h16p14--------|
D|----12----11----10--9-10--------12----11----10--9-------12----------14-----|
A|-10----10----10--------------10----10----10--------------------------------|
E|---------------------------------------------------------------------------|
Gtr1: Fingerpicking acoustic
e|---------------------------------------------------------------------------|
B|---------------------------------------------------------------------------|
G|-12---------9p7-5----12-12/--7h10p9--9-12-9h11--12p9--9-9-11-11--12h16-----|
D|----10-----------------------------------------------------------------h14-|
A|---------------------10-10/------------------------7--7-7-9--9-------------|
E|---------------------------------------------------------------------------|
Gtr2: Acoustic
e|---------------------------------------------------------------------------|
B|---------------------------------------------------------------------------|
G|---------------------------------------------------------------------------|
D|---------------------------------------------------------------------------|
A|----10-9h10-7---10p9-------------------------------------------------------|
E|---------------------------------------------------------------------------|
Gtr1: Fingerpicking acoustic
e|---------------------------------------------------------------------------|
B|-------------12------------------------------------------------------------|
G|--12--------12----12-11-9--7-7/9--12-11-9-7-7/9--12-11-9--9-7--------------|
D|-14---14-16---14---------------------------------12-11-9----7--------------|
A|------------------10-9--7---------10-9--7--------10-9--7--7-5--------------|
E|---------------------------------------------------------------------------|



************************************

| /   slide up
| \   slide down
| h   hammer-on
| p   pull-off

************************************
Tap to rate this tab
# A B C D E F G H I J K L M N O P Q R S T U V W X Y Z