Song name
# A B C D E F G H I J K L M N O P Q R S T U V W X Y Z

Gustavo Santaolalla - All Gone The Outside tab

-------------------------------------------------------------------------------
                                      All Gone (The Outside) - Gustavo Santaolalla
-------------------------------------------------------------------------------
Tabbed by: earncreek
E-mail: earncreek00@gmail.com

Tuning: Standard EADGBe


e|--------------------------------------------------------------------------|
B|--------------------------------------------------------------------------|
G|--------------------------------------------------------------------------|
D|---2/5-5----4-----2/5-5----4h5p4----5-------------------------------------|
A|-----------------------------------------3---2-2h3p2----------------------|
E|--------------------------------------------------------------------------|

e|--------------------------------------------------------------------------|
B|--------------------------------------------------------------------------|
G|--------------------------------------------------------------------------|
D|---2-2/5----4-----2--2--1--------0--1-------------------------------------|
A|------------------------------3-------------------------------------------|
E|-----------------------------------------3-3/6--5-----3-3/6--5---3--------|

e|--------------------------------------------------------------------------|
B|--------------------------------------------------------------------------|
G|------------------------------------------7---5---0-----------------------|
D|-------------------5---0------5---7---8---------------8---7---------------|
A|---3---3/6-------5--------------------------------------------------------|
E|---------------3----------------------------------------------------------|

e|--------------------------------------------------------------------------|
B|--------------------------------------------------------------------------|
G|--------------3-----------------------------------------------------------|
D|-----5-------5------------------------------------------------------------|
A|----5-------5-------------------------------------------------------------|
E|---0-------3--------------------------------------------------------------|

************************************

| /   slide up
| \   slide down
| h   hammer-on
| p   pull-off
| ~   vibrato
| +   harmonic
| x   Mute note
| b   Bend
| pb  Pre-bend
| br  Bend release
| pbr Pre-bend release
| brb Bend release bend

************************************
Tap to rate this tab
# A B C D E F G H I J K L M N O P Q R S T U V W X Y Z