Song name
# A B C D E F G H I J K L M N O P Q R S T U V W X Y Z

Gustavo Santaolalla - The Path tab

Intro:
   Bm             Am           Em                Bm        F#m
E|--------------------------------------------------------------------------|
B|--------------------------------------------------------------------------|
G|--------------------------------------------------------------------------|
D|-----022--2/4---------20-----------2022 2/4-----40---------0--------------|
A|--24--------------04-----4-------2-----------------2---------4------------|
E|-2--------------0-------------03---------------------2--------------------|

Verse:
   Bm Bm      A A            Em Em          Bm     F#m
e|--------------------------------------------------------------------------|
B|---02320------0-0h2p0--------03-2h3p2-0-----------------------------------|
G|------------2---------2-----0----------0----------------------------------|
D|--4-----4--2---------------2--------------40------0-----------------------|
A|--------------------------------------------2------4----------------------|
E|----------------------------------------------2---------------------------|

Prechorus
   F#m     G     G    Bm Bm
e|--------------------------------------------------------------------------|
B|--------------------------------------------------------------------------|
G|--------------------------------------------------------------------------|
D|--------------------------------------------------------------------------|
A|--(4)-0-----2---2---2-----------------------------------------------------|
E|--------------------------------------------------------------------------|

Chorus
    Dm Dm    C C         Gm Gm        Dm    Am   Dm
e|--------------------------------------------------------------------------|
B|--------------------------------------------------------------------------|
G|-------------------------------------2--------------002-------------------|
D|------002---0----0----------53-55/7---30--3-2----023----------------------|
A|---023---------2---32-----5--------------0-----0--------------------------|
E|--0-----------3---------36------------------------------------------------|
Tap to rate this tab
# A B C D E F G H I J K L M N O P Q R S T U V W X Y Z