Song name
# A B C D E F G H I J K L M N O P Q R S T U V W X Y Z

Gustavo Santaolalla - The Path tab

Main theme:
    Bm        Bm   A      A     Em     Em     Bm       F#m
e|--------0-0-0h2-------0----------0--0-0h2---2-----------------------------|
B|----023--------------2--32------0--3---------30---3--2--------------------|
G|-------------------2-----------0------------------------------------------|
D|--4---------------2-----------2-----------------4-------------------------|
A|--2--------------0--------------------------2-----------------------------|
E|-----------------------------0------------------------2-------------------|

Transition:
    F#m    F#M       G        G     Bm     Bm
e|--------------------------------------------------------------------------|
B|--2----------------0--------0-----0------0--------------------------------|
G|-----------2--------------------------------------------------------------|
D|--------------------------------------------------------------------------|
A|-----------------------------------2------2-------------------------------|
E|--2---------2-------3------3----------------------------------------------|

Transition:
    F#m                F#m           G(x2)         Bm(x2)
e|--------------------------------------------------------------------------|
B|---2---2---2--2--2------------------0-0-0-0------0-0-0-0------------------|
G|---2---2--2--2--2-----2---2--2-2----0-0-0-0------4-4-4-4------------------|
D|--------------------------------------------------------------------------|
A|--------------------------------------------------2-2-2-2-2---------------|
E|----2--2-2--2--2-------2-2--2-2-2---3-3-3-3-3-----------------------------|

Major 'New Beginning' theme-part 1:
   D/F#G   A                            D/F#G                 A
e|---------10-------------9--------------------10--------------------9---------------|
B|-10--------12----10------10-10h12p10--10--------12h14p12----10------10-10----------|
G|----11----------------9-------------------11------------12-------9-------12--------|
D|--------------------11-------------------12--------------------11------------------|
A|-----------------------------------------------------------------------------------|
E|-----------------------------------------------------------------------------------|

Major "New beginning" theme-part 2
   D/F#G          A                    D/F#G       A                 A              A
e|---------10------------9-----------------------------------------9---------------10-9-|
B|-10--------12----10-----10-10h12p10---10---12-----10---12-10------10-----12h14p12-----|
G|-----11------12------9------------------11---12-------9-------9------9----------------|
D|---12--------------11-------------------------------11---------11-----11--------------|
A|--------------------------------------------------------------------------------------|
E|--------------------------------------------------------------------------------------|

D minor theme-outro:
  Dm     dm         C  C         Gm  Gm         Dm     Am(x2)      Dm
e|-----0-1-3-3-3/5------0-3-1-0------3--3-3/5---5------1--0----------01-3-3-3/5---|
B|----3---------------1-------------3--6---------6------------------3-------------|
G|--2---------------0-------------3---------------7/2--------------2--------------|
D|--0-------------------------------------------------------------0---------------|
A|------------------3--------------------------------------0----------------------|
E|---------------------------------3----------------------------------------------|



************************************

 /   slide up
 \   slide down
 h   hammer-on
 p   pull-off
 ~   vibrato
 +   harmonic
 x   Mute note
 b   Bend
 pb  Pre-bend
 br  Bend release
 pbr Pre-bend release
 brb Bend release bend

************************************
Tap to rate this tab
# A B C D E F G H I J K L M N O P Q R S T U V W X Y Z