Song name
# A B C D E F G H I J K L M N O P Q R S T U V W X Y Z

Gustavo Santaolalla - Left Behind Together tab

-------------------------------------------------------------------------------
                             Left Behind (Together) - Gustavo Santaolalla
-------------------------------------------------------------------------------
Tabbed by: zdenko1
E-mail: zdenko1@centrum.sk

Tuning: Standard EADGBe


e|-----------0-----------------------------------------0--------------------------------|
B|--------------------3-----------3--------3--------------------3-----------3--------3--|
G|--------4--------4-----------4--------4-----------4--------4-----------4--------4-----|
D|-----4--------4-----------4--------4-----------4--------4-----------4--------4--------|
A|--2--------------------2--------------------2--------------------2--------------------|
E|--------------------------------------------------------------------------------------|

                        
e|--------2-----2--------0-----------------------0--------0-----0----------------------------|
B|--------------------------3--2-----------2-----------------------------3p2--0-----------0--|
G|--4-----------------4-----------------4-----------0-----------------4-------4-----4--------|
D|-----4-----4-----4--------------4--4--------4--------4-----4-----4-------------4-----4-----|
A|--2--------------------------0-------------------------------------------------------------|
E|--------------------------------------------------3-------------------------3--------------|


e|--------2-----2--------0-----------------------0--------0-----0----------------------------|
B|--------------------------3--2-----------2-----------------------------3p2--0-----------0--|
G|--4-----------------4-----------------4-----------0-----------------4-------4-----4--------|
D|-----4-----4-----4--------------4--4--------4--------4-----4-----4-------------4-----4-----|
A|--2--------------------------0-------------------------------------------------------------|
E|--------------------------------------------------3-------------------------3--------------|


e|----------------------------------------------------------------------------------------------|
B|------------3-----3-----2-----0-----------0-----2-----3--------3--------3--2--------2--------2|
G|------0-----------------------------2-----------------4-----4--------4-----4-----4--------4---|
D|------0--0-----0-----0-----0-----0-----0-----0-----0--4--4--------4-----------4--------4------|
A|------------------------------------------------------2--------------------0------------------|
E|0--2--3---------------------------------------------------------------------------------------|


e|-----------0--------------------------0--------------------0-----------------|
B|--0-----------------0--------------0-----0--------0-----------------0-----2--|
G|--4-----4--------4--------------4-----------4-----4-----4--------4--------3--|
D|-----4--------4--------4-----4-----------------4-----4--------4--------4--4--|
A|--------------------------------------------------------------------------4--|
E|--3-----------------------3-----------------------2--------------------------|


************************************

| /   slide up
| \   slide down
| h   hammer-on
| p   pull-off
| ~   vibrato
| +   harmonic
| x   Mute note
| b   Bend
| pb  Pre-bend
| br  Bend release
| pbr Pre-bend release
| brb Bend release bend

************************************
Tap to rate this tab
# A B C D E F G H I J K L M N O P Q R S T U V W X Y Z