Song name
# A B C D E F G H I J K L M N O P Q R S T U V W X Y Z

Gustavo Santaolalla - Returning tab

Optional background guitar
  Fm
A-3tr-----------------------------------------------------------------------|
E-1tr-----------------------------------------------------------------------|

intro
  Fm       Eb  Fm           EbFm Db
e---------------------------------------------------------------------------|
B---------------------------------------------------------------------------|
G---------------------------------------------------------------------------|
D---3/6-6--5---3/6-6--6h8p6-5-6\-3-6----------------------------------------|
A--------8--6-------8-8-----6-8\-4-4----------------------------------------|
E-1-1----------1------------------------------------------------------------|

Main theme
  Fm      Eb Fm      EmDb Db Fm Eb  DbFm  Db
e---------------------------------------------------------------------------|
B---------------------------------------------------------------------------|
G---------------------------------------------------------------------------|
D-3-3/6-6-5--3-3/6-6-5-3--3-6-6-5---3-6-6-5---5\3--6tr----------------------|
A--------8-6----------6-4--4--8-6---4-8-8-6---6\4--4tr----------------------|
E-1----------1--------------------------------------------------------------|

Digression-end
  Db  Cm   A         Bb Ab        Gm  Db  Fm    Eb
e---------------------------------------------------------------------------|
B---------------------------------------------------------------------------|
G---------------------------------------------------------------------------|
D-3-3\1-1---------------3-3-1-1h3-1h3-3---3-3/6-5---------------------------|
A-4---3-3--6-4-6-6/8-8----------------4-------8-6---------------------------|
E----------5---------6--4---------3-------1---------------------------------|
Tap to rate this tab
# A B C D E F G H I J K L M N O P Q R S T U V W X Y Z