Song name
# A B C D E F G H I J K L M N O P Q R S T U V W X Y Z

Gustavo Santaolalla - The Last Of Us tab

-------------------------------------------------------------------------------
                             The Last of Us - Gustavo Santaolalla
-------------------------------------------------------------------------------
Tabbed by: Austin K

Tuning:Standard

e|---------0--------------0----------------0----------------0----------------0----------------0--|
B|------0---------------0---------------0----------------0----------------0----------------0-----|
G|--12---------------9--------------14---------------11---------------12-------------------------|
D|-------------------------------------------------------------------------------------14--------|
A|-----------------------------------------------------------------------------------------------|
E|-----------------------------------------------------------------------------------------------|

e|---------0--------------0---------------0---------------0------------------0-------------------|
B|------0--------------0---------------0---------------0------------------0----------------------|
G|--12--------------9--------------14--------------11--------------12/16-------------------------|
D|-----------------------------------------------------------------------------------------------|
A|-----------------------------------------------------------------------------------------------|
E|-----------------------------------------------------------------------------------------------|

e|---------0--------------0----------------0----------------0----------------0----------------0--|
B|------0---------------0---------------0----------------0----------------0----------------0-----|
G|--12---------------9--------------14---------------11---------------12-------------------------|
D|-------------------------------------------------------------------------------------14--------|
A|-----------------------------------------------------------------------------------------------|
E|-----------------------------------------------------------------------------------------------|

e|---------0----------------0---------------0---------------0-----------------0------------------|
B|------0----------------0---------------0---------------0-----------------0---------------------|
G|--12---------------11---------------9---------------7---------------7/9------------------------|
D|-----------------------------------------------------------------------------------------------|
A|-----------------------------------------------------------------------------------------------|
E|-----------------------------------------------------------------------------------------------|




************************************

| /   slide up
| \   slide down
| h   hammer-on
| p   pull-off
| ~   vibrato
| +   harmonic
| x   Mute note
| b   Bend
| pb  Pre-bend
| br  Bend release
| pbr Pre-bend release
| brb Bend release bend

************************************
Tap to rate this tab
# A B C D E F G H I J K L M N O P Q R S T U V W X Y Z