Song name
# A B C D E F G H I J K L M N O P Q R S T U V W X Y Z

Gustavo Santaolalla - Do We Lose 21 Grams tab

you have to figure out the timing but it generally goes like this..

standard tuning 

|----------------------------------------------------------------
|----------------------------------------------------------------
|-----------------------------------------------4-2~-------------
|4h5h4~---4h5h4~--4h5h4~----4-5~--4h5h4~---4h5h4------4h5h4~----0
|---------------------------------------------------------------0
|------5~---------------5~--------------5~------------------5~--5

also in the background something like this fades in

|--2--|--2--|--2-0-| one of those repeated, its too quiet to tell.
|---0-|---0-|------|
|-2---|-4---|-2----|
|-----|-----|------|
|-----|-----|------|
|-----|-----|------|

Tap to rate this tab
 
# A B C D E F G H I J K L M N O P Q R S T U V W X Y Z