Guitaretab - guitar tabs
Song name
# A B C D E F G H I J K L M N O P Q R S T U V W X Y Z

Gustavo Santaolalla - Deportation tab

this is my first tab .. ever. on the web and in any writen forme so .. please be
;)
and e-mail me for any sugestions..
   dhp2u2@gmail.com

The song is from BABEL(2006) soundtrack .. and the reason i've done it is because i
find a single tab on it :)and it has such a great feel to it

e|---------------------------------------------------------------------------|
B|--------12-------10------10/12---------------------------------------------|
G|9--------------------------------------9---------7-------5------------4----|
D|-----12-------10-------------------7---------5/------4-----------2---------|
A|---------------------------------------------------------------------------|
E|---------------------------------------------------------------------------|

[ Tab from: http://www.guitaretab.com/g/gustavo-santaolalla/84846.html ]
e|---------------------------------------------------------------------------|
B|--------12-------10------10h12---------------------------------------------|
G|9--------------------------------------9---------7-------5------------4----|
D|-----12-------10-------------------7---------5/------4-----------2---------|
A|---------------------------------------------------------------------------|
E|---------------------------------------------------------------------------|

the second part goes like this..

e|---------------------------------------------------------------------------|
B|10h11p10-11--10h11p10-11--10h11p10-11---8-7---------5h7-8--5h7-8---5--3/5--|
G|---------------------------------------------------------------------------|
D|---------------------------------------------------------------------------|
A|---------------------------------------------------------------------------|
E|---------------------------------------------------------------------------|


i couldn't figure out the second guitar(although it might be..a singel very complex
:D)

a review would realy be apreciated :)
10x
Related for Deportation tab
Advertisement will be closed in 10 seconds