Song name
# A B C D E F G H I J K L M N O P Q R S T U V W X Y Z

Gustavo Santaolalla - Tazarine tab

Help us improve GuitareTab! Take a short survey!
-------------------------------------------------------------------------------
			     Tazarine - Gustavo Santaolalla
-------------------------------------------------------------------------------
Tabbed by: Joseph Montano
Email: jmontano5fcm@yahoo.com

Tuning: Standard

This is the academy award winning song for Best Original Score at the Oscars


                             ~~~~
|----------|----------|----------|----------|
|----------|----------|----------|----------|
|----------|----------|----------|----------|
|----------|----------|----------|----------|
|--------9-|--------9-|-7-9s10-9-|--------9-|
|-7-9-10---|-7-9-10---|----------|-7-9-10---|


                  ~~~~       ~~
|----------|----------|----------|-----------------|
|----------|----------|----------|-----------------|
|----------|----------|----------|-----------------|
|----------|----------|----------|-----------------|
|--------9-|-7-9s10-9-|----------|-9---------------|
|-7-9-10---|----------|-7-9-10-9-|---10-9h10p9-7---|


                     ~        ~~~~           ~~~~~~
|-----------|----------|----------|------------|-----------|
|-----------|----------|----------|------------|-----------|
|------7-11-|-9--------|----------|------------|-----------|
|-9-11------|---11-8s9-|-8--------|-8s9-8------|-----------|
|-----------|----------|---9s10-9-|-------9s10-|-9---------|
|-----------|----------|----------|------------|----7-9-10-|


                    ~~~~~~                           ~~~~
|----------|----------|----------|----------|--------------|
|----------|----------|----------|----------|--------------|
|----------|----------|----------|----------|--------------|
|----------|----------|----------|----------|--------------|
|-9--------|-9-7-9s10-|-9--------|-9--------|-9-7-9s10-9---|
|---7-9-10-|----------|---7-9-10-|---7-9-10-|--------------|


|-----------------------------|
|-----------------------------|
|-----------------------------|
|-----------------------------|
|----------9------------------|
|-7-9-10-9---10-9h10p9-7-7----|

LEGEND
| /  slide up
| \  slide down
| h  hammer-on
| p  pull-off
| ~  vibrato
| +  harmonic
| x  Mute note
===============================================================================
Related for Tazarine tab