Song name
# A B C D E F G H I J K L M N O P Q R S T U V W X Y Z

Guster - Rainy Day tab

Tunning - Standard (E A D G B e)

(0:00 - 0:45) clean
|----------------------------------------------------------------------------|
|-------12----------12----------12----------12----------12----------12-------|
|----12----12----12----12----12----12----12----12----12----12----12----12----|
|-14----------14----------12----------12----------11----------11-------------|
|----------------------------------------------------------------------------|
|----------------------------------------------------------------------------|

-------------20--------------------------------------------------------------|
-------12-17----17-----------------------------------------------------------|
----12-------------17--------------------------------------------------------|
-10-------------------12-14--------------------------------------------------|
-----------------------------------------------------------------------------|
-----------------------------------------------------------------------------|

(0:46 - 0:53) clean
|---------------------|
|---------------------|
|---------------------|
|-14---12-------------|
|-----------12-14-----|
|---------------------|

(0:54 - 1:22) clean
|----------------------------------------------------------------------------|
|-------12----------12----------12----------12----------12----------12-------|
|----12----12----12----12----12----12----12----12----12----12----12----12----|
|-14----------14----------12----------12----------11----------11-------------|
|----------------------------------------------------------------------------|
|----------------------------------------------------------------------------|

-------------20--------------------------------------------------------------|
-------12-17----17-----------------------------------------------------------|
----12-------------17--------------------------------------------------------|
-10-------------------12-14--------------------------------------------------|
-----------------------------------------------------------------------------|
-----------------------------------------------------------------------------|

(1:23 - 1:36) clean
|---------------------|
|---------------------|
|---------------------|
|-14---12-------------|
|-----------12-14-----|
|---------------------|

(1:37 - 2:08) clean
|-0-------0-------0-------0-------|
|-0-------0-------0-------0-------|
|-9-------7-------6-------5-------|
|-9-------7-------6-------5-------|
|-7-------5-------4-------3-------|
|---------------------------------|

(2:09 - 2:45) clean
|------------------------------------------10--7---10----------------------|
|---------5-------5-7-------7-8-----7-8-10------------7------7-8---7-5-----|
|---------------7---------9--------------------------------9-----------5---|
|--------------------------------------------------------------------------|
|-7-7-7-7------------------------------------------------------------------|
|--------------------------------------------------------------------------|

(2:46 - 3:28) a little bit distorted
|-------------------------------------------------|
|-------------------------------------------------|
|-----9-----9-----7-----7-----6-----6-----5-----5-|
|-----9-----9-----7-----7-----6-----6-----5-----5-|
|-----7-----7-----5-----5-----4-----4-----3-----3-|  . = palm mute
|-0-0---0-0---0-0---0-0---0-0---0-0---0-0---0-0---|
  . .   . .   . .   . .   . .   . .   . .   . .

(3:29 - 4:11) distorted
|---------------------------------|
|---------------------------------|
|-9-------7-------6-------5-------|
|-9-------7-------6-------5-------|
|-7-------5-------4-------3-------|
|---------------------------------|

(4:12 - 4:15) distorted
|-------------------------------------------------|
|-------------------------------------------------|
|-14-14-12-12-14-14-12-12-14-14-12-12-14-14-12-12-|
|-14-14-12-12-14-14-12-12-14-14-12-12-14-14-12-12-|
|-12-12-10-10-12-12-10-10-12-12-10-10-12-12-10-10-|
|-------------------------------------------------|

(4:16 - 5:07) distorted
|-------------------------------------------------|
|-------------------------------------------------|
|-----9-----9-----7-----7-----6-----6-----5-----5-|
|-----9-----9-----7-----7-----6-----6-----5-----5-|
|-----7-----7-----5-----5-----4-----4-----3-----3-|
|-0-0---0-0---0-0---0-0---0-0---0-0---0-0---0-0---|

(5:08 - 5:25)
|---|
|---|
|---|   keep playing that note till end of song
|---|
|-7-|
|---|
Tap to rate this tab
# A B C D E F G H I J K L M N O P Q R S T U V W X Y Z