Song name
# A B C D E F G H I J K L M N O P Q R S T U V W X Y Z

Guster - Captain tab

Band: Guster
Song: Captain

Intro Chord: C

C          F    C     G
I've come down with something
      Am         F           C  G
I'm frozen, tied up, cast in lead
     C        F  C         G
It's simple, so says the captain
    Am              F           C   G
Face forward, move slow, forge ahead

  C               Am                Em              F
--3---3---3---3----5---5---5---5---7---7---7---7-6-5---5---5---8-10-12-----|
----5---5---5---5----5---5---5---5---5---5---5-------6---6---6-------------|
---------------------------------------------------------------------------|
---------------------------------------------------------------------------|
---------------------------------------------------------------------------|
---------------------------------------------------------------------------|


I'm earning a reputation
My conscience, mistrust and regret
Courageous, just like the captain
Marching forward with no doubt in his head

--0----------0-----------0----1~--------------------------|
--1~---------1~----------0----1~--------------------------|
--0----------2~----------0----2~--------------------------|
--2~-----0-2-2~----------2~---3~--------------------------|
--3~---3-----0----0-2-3--2~---3~--------------------------|
-------------------------0----1~--------------------------|


    C Am
Onward
    Em F
Onward
Onward
Onward
Tap to rate this tab
 
# A B C D E F G H I J K L M N O P Q R S T U V W X Y Z