Song name
# A B C D E F G H I J K L M N O P Q R S T U V W X Y Z

Guster - Center Of Attention tab

Standard Tuning

INTRO/Guitar 1

e|-10--10-12--10--10-12--9--9-12--9--9-12--8--8-12--8--8-12--7-7-10--7-7-10-|
B|---10---------10--------10-------10-------10-------10-------8-------8-----|
G|--------------------------------------------------------------------------|
D|--------------------------------------------------------------------------|
A|--------------------------------------------------------------------------|
E|--------------------------------------------------------------------------|

INTRO(2)/Guitar 2

e|---5-3-2-0-3-2-0---3-2-0---7-5-3-2-|
B|-3---------------3-------3---------|
G|-----------------------------------|
D|-----------------------------------|
A|-----------------------------------|
E|-----------------------------------|

Riff 1,2/Guitar 1

e|---------|---------------------------|
B|---------|---------------------------|
G|---------|-----------2-------------0-|
D|-0-------|-0-4-0-4/5-------2---2/3---|
A|---0-3---|-------------0-3---3-------|
E|-------3-|---------------------------|

Chords/Guitar 2

   D  A  C  G
e|-2--0--0--3-|
B|-3--2--1--3-|
G|-2--2--0--0-|
D|-0--2--2--0-|
A|-x--0--3--2-|
E|-x--x--x--3-|
Tap to rate this tab
# A B C D E F G H I J K L M N O P Q R S T U V W X Y Z