Song name
# A B C D E F G H I J K L M N O P Q R S T U V W X Y Z

Guster - Well tab

Song:  Well
Artist: Guster
Album:  Easy Wonderful [Deluxe Version]
Tab Author:  Jacob Post

Capo 5th fret
Standard tuning

All chords are played with the open E used to modify each to give the song a unified sound

      A
e|----------------------------------------|
b|----2---2----2---2----2---2----2---2----|
g|-----2---2----2---2----2---2----2---2---|
d|------2--------2--------2--------2------|
a|----------------------------------------|
E|--0---------0--------0--------0---------|
      Bm
e|----------------------------------------|
b|----3---3----3---3----3---3----3---3----|
g|-----4---4----4---4----4---4----4---4---|
d|------4--------4--------4--------4------|
a|----------------------------------------|
E|--0---------0--------0--------0---------|
      F#m
e|----------------------------------------|
b|----------------------------------------|
g|----2---2-----2---2----2---2-----2---2--|
d|-----4---4-----4---4----4---4-----0---0-|
a|------4---------4--------4---------4----|
E|--0---------0---------0--------0--------|
      A
e|----------------------------------------|
b|----------------------------------------|
g|----2---2-----2---2----2---2-----2---2--|
d|-----2---2-----2---2----2---2-----2---2-|
a|------0---------0--------0---------0----|
E|--0---------0---------0--------0--------|
Tap to rate this tab
 
# A B C D E F G H I J K L M N O P Q R S T U V W X Y Z